  0
SECTION
  2
HEADER
  9
$ACADVER
  1
AC1018
  9
$ACADMAINTVER
 70
    76
  9
$DWGCODEPAGE
  3
ANSI_1252
  9
$INSBASE
 10
0.0
 20
0.0
 30
0.0
  9
$EXTMIN
 10
-0.046875
 20
-0.046875
 30
0.0
  9
$EXTMAX
 10
5.03784
 20
4.409316
 30
0.0
  9
$LIMMIN
 10
0.0
 20
0.0
  9
$LIMMAX
 10
12.0
 20
9.0
  9
$ORTHOMODE
 70
     0
  9
$REGENMODE
 70
     1
  9
$FILLMODE
 70
     1
  9
$QTEXTMODE
 70
     0
  9
$MIRRTEXT
 70
     1
  9
$LTSCALE
 40
1.0
  9
$ATTMODE
 70
     1
  9
$TEXTSIZE
 40
0.2
  9
$TRACEWID
 40
0.05
  9
$TEXTSTYLE
  7
Standard
  9
$CLAYER
  8
AESTHETICS
  9
$CELTYPE
  6
CONTINUOUS
  9
$CECOLOR
 62
   256
  9
$CELTSCALE
 40
1.0
  9
$DISPSILH
 70
     0
  9
$DIMSCALE
 40
1.0
  9
$DIMASZ
 40
0.18
  9
$DIMEXO
 40
0.0625
  9
$DIMDLI
 40
0.38
  9
$DIMRND
 40
0.0
  9
$DIMDLE
 40
0.0
  9
$DIMEXE
 40
0.18
  9
$DIMTP
 40
0.0
  9
$DIMTM
 40
0.0
  9
$DIMTXT
 40
0.18
  9
$DIMCEN
 40
0.09
  9
$DIMTSZ
 40
0.0
  9
$DIMTOL
 70
     0
  9
$DIMLIM
 70
     0
  9
$DIMTIH
 70
     1
  9
$DIMTOH
 70
     1
  9
$DIMSE1
 70
     0
  9
$DIMSE2
 70
     0
  9
$DIMTAD
 70
     0
  9
$DIMZIN
 70
     0
  9
$DIMBLK
  1

  9
$DIMASO
 70
     1
  9
$DIMSHO
 70
     1
  9
$DIMPOST
  1

  9
$DIMAPOST
  1

  9
$DIMALT
 70
     0
  9
$DIMALTD
 70
     2
  9
$DIMALTF
 40
25.4
  9
$DIMLFAC
 40
1.0
  9
$DIMTOFL
 70
     0
  9
$DIMTVP
 40
0.0
  9
$DIMTIX
 70
     0
  9
$DIMSOXD
 70
     0
  9
$DIMSAH
 70
     0
  9
$DIMBLK1
  1

  9
$DIMBLK2
  1

  9
$DIMSTYLE
  2
Standard
  9
$DIMCLRD
 70
     0
  9
$DIMCLRE
 70
     0
  9
$DIMCLRT
 70
     0
  9
$DIMTFAC
 40
1.0
  9
$DIMGAP
 40
0.09
  9
$DIMJUST
 70
     0
  9
$DIMSD1
 70
     0
  9
$DIMSD2
 70
     0
  9
$DIMTOLJ
 70
     1
  9
$DIMTZIN
 70
     0
  9
$DIMALTZ
 70
     0
  9
$DIMALTTZ
 70
     0
  9
$DIMUPT
 70
     0
  9
$DIMDEC
 70
     4
  9
$DIMTDEC
 70
     4
  9
$DIMALTU
 70
     2
  9
$DIMALTTD
 70
     2
  9
$DIMTXSTY
  7
Standard
  9
$DIMAUNIT
 70
     0
  9
$DIMADEC
 70
     0
  9
$DIMALTRND
 40
0.0
  9
$DIMAZIN
 70
     0
  9
$DIMDSEP
 70
    46
  9
$DIMATFIT
 70
     3
  9
$DIMFRAC
 70
     0
  9
$DIMLDRBLK
  1

  9
$DIMLUNIT
 70
     2
  9
$DIMLWD
 70
    -2
  9
$DIMLWE
 70
    -2
  9
$DIMTMOVE
 70
     0
  9
$LUNITS
 70
     2
  9
$LUPREC
 70
     4
  9
$SKETCHINC
 40
0.1
  9
$FILLETRAD
 40
0.0
  9
$AUNITS
 70
     0
  9
$AUPREC
 70
     0
  9
$MENU
  1
.
  9
$ELEVATION
 40
0.0
  9
$PELEVATION
 40
0.0
  9
$THICKNESS
 40
0.0
  9
$LIMCHECK
 70
     0
  9
$CHAMFERA
 40
0.0
  9
$CHAMFERB
 40
0.0
  9
$CHAMFERC
 40
0.0
  9
$CHAMFERD
 40
0.0
  9
$SKPOLY
 70
     0
  9
$TDCREATE
 40
2453126.487433947
  9
$TDUCREATE
 40
2453126.737433947
  9
$TDUPDATE
 40
2454236.566733565
  9
$TDUUPDATE
 40
2454236.816733565
  9
$TDINDWG
 40
0.0836709722
  9
$TDUSRTIMER
 40
0.0836709722
  9
$USRTIMER
 70
     1
  9
$ANGBASE
 50
0.0
  9
$ANGDIR
 70
     0
  9
$PDMODE
 70
     0
  9
$PDSIZE
 40
0.0
  9
$PLINEWID
 40
0.0
  9
$SPLFRAME
 70
     0
  9
$SPLINETYPE
 70
     6
  9
$SPLINESEGS
 70
     8
  9
$HANDSEED
  5
219
  9
$SURFTAB1
 70
     6
  9
$SURFTAB2
 70
     6
  9
$SURFTYPE
 70
     6
  9
$SURFU
 70
     6
  9
$SURFV
 70
     6
  9
$UCSBASE
  2

  9
$UCSNAME
  2

  9
$UCSORG
 10
0.0
 20
0.0
 30
0.0
  9
$UCSXDIR
 10
1.0
 20
0.0
 30
0.0
  9
$UCSYDIR
 10
0.0
 20
1.0
 30
0.0
  9
$UCSORTHOREF
  2

  9
$UCSORTHOVIEW
 70
     0
  9
$UCSORGTOP
 10
0.0
 20
0.0
 30
0.0
  9
$UCSORGBOTTOM
 10
0.0
 20
0.0
 30
0.0
  9
$UCSORGLEFT
 10
0.0
 20
0.0
 30
0.0
  9
$UCSORGRIGHT
 10
0.0
 20
0.0
 30
0.0
  9
$UCSORGFRONT
 10
0.0
 20
0.0
 30
0.0
  9
$UCSORGBACK
 10
0.0
 20
0.0
 30
0.0
  9
$PUCSBASE
  2

  9
$PUCSNAME
  2

  9
$PUCSORG
 10
0.0
 20
0.0
 30
0.0
  9
$PUCSXDIR
 10
1.0
 20
0.0
 30
0.0
  9
$PUCSYDIR
 10
0.0
 20
1.0
 30
0.0
  9
$PUCSORTHOREF
  2

  9
$PUCSORTHOVIEW
 70
     0
  9
$PUCSORGTOP
 10
0.0
 20
0.0
 30
0.0
  9
$PUCSORGBOTTOM
 10
0.0
 20
0.0
 30
0.0
  9
$PUCSORGLEFT
 10
0.0
 20
0.0
 30
0.0
  9
$PUCSORGRIGHT
 10
0.0
 20
0.0
 30
0.0
  9
$PUCSORGFRONT
 10
0.0
 20
0.0
 30
0.0
  9
$PUCSORGBACK
 10
0.0
 20
0.0
 30
0.0
  9
$USERI1
 70
     0
  9
$USERI2
 70
     0
  9
$USERI3
 70
     0
  9
$USERI4
 70
     0
  9
$USERI5
 70
     0
  9
$USERR1
 40
0.0
  9
$USERR2
 40
0.0
  9
$USERR3
 40
0.0
  9
$USERR4
 40
0.0
  9
$USERR5
 40
0.0
  9
$WORLDVIEW
 70
     1
  9
$SHADEDGE
 70
     3
  9
$SHADEDIF
 70
    70
  9
$TILEMODE
 70
     1
  9
$MAXACTVP
 70
    64
  9
$PINSBASE
 10
0.0
 20
0.0
 30
0.0
  9
$PLIMCHECK
 70
     0
  9
$PEXTMIN
 10
1.000000000000000E+20
 20
1.000000000000000E+20
 30
1.000000000000000E+20
  9
$PEXTMAX
 10
-1.000000000000000E+20
 20
-1.000000000000000E+20
 30
-1.000000000000000E+20
  9
$PLIMMIN
 10
0.0
 20
0.0
  9
$PLIMMAX
 10
12.0
 20
9.0
  9
$UNITMODE
 70
     0
  9
$VISRETAIN
 70
     1
  9
$PLINEGEN
 70
     0
  9
$PSLTSCALE
 70
     1
  9
$TREEDEPTH
 70
  3020
  9
$CMLSTYLE
  2
Standard
  9
$CMLJUST
 70
     0
  9
$CMLSCALE
 40
1.0
  9
$PROXYGRAPHICS
 70
     1
  9
$MEASUREMENT
 70
     0
  9
$CELWEIGHT
370
    -1
  9
$ENDCAPS
280
     0
  9
$JOINSTYLE
280
     0
  9
$LWDISPLAY
290
     0
  9
$INSUNITS
 70
     0
  9
$HYPERLINKBASE
  1

  9
$STYLESHEET
  1

  9
$XEDIT
290
     1
  9
$CEPSNTYPE
380
     0
  9
$PSTYLEMODE
290
     1
  9
$FINGERPRINTGUID
  2
{E6B587B6-CED4-40EA-B595-F68DD92CBEE1}
  9
$VERSIONGUID
  2
{129E8DC4-0A45-46C0-AFD4-5E9BB236F1DC}
  9
$EXTNAMES
290
     1
  9
$PSVPSCALE
 40
0.0
  9
$OLESTARTUP
290
     0
  9
$SORTENTS
280
   127
  9
$INDEXCTL
280
     0
  9
$HIDETEXT
280
     0
  9
$XCLIPFRAME
290
     0
  9
$HALOGAP
280
     0
  9
$OBSCOLOR
 70
   257
  9
$OBSLTYPE
280
     0
  9
$INTERSECTIONDISPLAY
280
     0
  9
$INTERSECTIONCOLOR
 70
   257
  9
$DIMASSOC
280
     1
  9
$PROJECTNAME
  1

  0
ENDSEC
  0
SECTION
  2
CLASSES
  0
CLASS
  1
ACDBDICTIONARYWDFLT
  2
AcDbDictionaryWithDefault
  3
ObjectDBX Classes
 90
        0
 91
        1
280
     0
281
     0
  0
CLASS
  1
DICTIONARYVAR
  2
AcDbDictionaryVar
  3
ObjectDBX Classes
 90
        0
 91
        2
280
     0
281
     0
  0
CLASS
  1
TABLESTYLE
  2
AcDbTableStyle
  3
ObjectDBX Classes
 90
     2047
 91
        1
280
     0
281
     0
  0
ENDSEC
  0
SECTION
  2
TABLES
  0
TABLE
  2
VPORT
  5
8
330
0
100
AcDbSymbolTable
 70
     2
  0
VPORT
  5
218
330
8
100
AcDbSymbolTableRecord
100
AcDbViewportTableRecord
  2
*Active
 70
     0
 10
0.0
 20
0.0
 11
1.0
 21
1.0
 12
2.740849722269903
 22
2.171044256583841
 13
0.0
 23
0.0
 14
1.0
 24
1.0
 15
0.0
 25
0.0
 16
0.0
 26
0.0
 36
1.0
 17
0.0
 27
0.0
 37
0.0
 40
5.879663026086733
 41
1.536679536679536
 42
50.0
 43
0.0
 44
0.0
 50
0.0
 51
0.0
 71
     0
 72
   100
 73
     1
 74
     1
 75
     0
 76
     0
 77
     0
 78
     0
281
     0
 65
     1
110
0.0
120
0.0
130
0.0
111
1.0
121
0.0
131
0.0
112
0.0
122
1.0
132
0.0
 79
     0
146
0.0
  0
ENDTAB
  0
TABLE
  2
LTYPE
  5
5
330
0
100
AcDbSymbolTable
 70
     5
  0
LTYPE
  5
13
330
5
100
AcDbSymbolTableRecord
100
AcDbLinetypeTableRecord
  2
ByBlock
 70
     0
  3

 72
    65
 73
     0
 40
0.0
  0
LTYPE
  5
14
330
5
100
AcDbSymbolTableRecord
100
AcDbLinetypeTableRecord
  2
ByLayer
 70
     0
  3

 72
    65
 73
     0
 40
0.0
  0
LTYPE
  5
15
330
5
100
AcDbSymbolTableRecord
100
AcDbLinetypeTableRecord
  2
CONTINUOUS
 70
     0
  3
Solid line
 72
    65
 73
     0
 40
0.0
  0
LTYPE
  5
22
330
5
100
AcDbSymbolTableRecord
100
AcDbLinetypeTableRecord
  2
DASHDOT
 70
     0
  3
__ . __ . __ . __ . __ . __ . __ . __ . __ . __
 72
    65
 73
     4
 40
1.0
 49
0.5
 74
     0
 49
-0.25
 74
     0
 49
0.0
 74
     0
 49
-0.25
 74
     0
  0
LTYPE
  5
23
330
5
100
AcDbSymbolTableRecord
100
AcDbLinetypeTableRecord
  2
DASHED
 70
     0
  3
__ __ __ __ __ __ __ __ __ __ __ __ __ __ __ __
 72
    65
 73
     2
 40
0.75
 49
0.5
 74
     0
 49
-0.25
 74
     0
  0
LTYPE
  5
24
330
5
100
AcDbSymbolTableRecord
100
AcDbLinetypeTableRecord
  2
DIVIDE
 70
     0
  3
____ . . ____ . . ____ . . ____ . . ____ . . __
 72
    65
 73
     6
 40
1.25
 49
0.5
 74
     0
 49
-0.25
 74
     0
 49
0.0
 74
     0
 49
-0.25
 74
     0
 49
0.0
 74
     0
 49
-0.25
 74
     0
  0
LTYPE
  5
25
330
5
100
AcDbSymbolTableRecord
100
AcDbLinetypeTableRecord
  2
DOT
 70
     0
  3
. . . . . . . . . . . . . . . . . . . . . . . . 
 72
    65
 73
     2
 40
0.25
 49
0.0
 74
     0
 49
-0.25
 74
     0
  0
ENDTAB
  0
TABLE
  2
LAYER
  5
2
330
0
100
AcDbSymbolTable
 70
     4
  0
LAYER
  5
10
330
2
100
AcDbSymbolTableRecord
100
AcDbLayerTableRecord
  2
0
 70
     0
 62
     7
  6
CONTINUOUS
370
    -3
390
F
  0
LAYER
  5
2E
330
2
100
AcDbSymbolTableRecord
100
AcDbLayerTableRecord
  2
AESTHETICS
 70
     0
 62
     3
  6
CONTINUOUS
370
    -3
390
F
  0
LAYER
  5
35
330
2
100
AcDbSymbolTableRecord
100
AcDbLayerTableRecord
  2
MECHANISM
 70
     0
 62
     1
  6
CONTINUOUS
370
    -3
390
F
  0
LAYER
  5
E2
330
2
100
AcDbSymbolTableRecord
100
AcDbLayerTableRecord
  2
tool
 70
     0
 62
    -7
  6
CONTINUOUS
370
    -3
390
F
  0
ENDTAB
  0
TABLE
  2
STYLE
  5
3
330
0
100
AcDbSymbolTable
 70
     1
  0
STYLE
  5
11
330
3
100
AcDbSymbolTableRecord
100
AcDbTextStyleTableRecord
  2
Standard
 70
     0
 40
0.0
 41
1.0
 50
0.0
 71
     0
 42
0.2
  3
txt
  4

  0
ENDTAB
  0
TABLE
  2
VIEW
  5
6
330
0
100
AcDbSymbolTable
 70
     0
  0
ENDTAB
  0
TABLE
  2
UCS
  5
7
330
0
100
AcDbSymbolTable
 70
     0
  0
ENDTAB
  0
TABLE
  2
APPID
  5
9
330
0
100
AcDbSymbolTable
 70
     2
  0
APPID
  5
12
330
9
100
AcDbSymbolTableRecord
100
AcDbRegAppTableRecord
  2
ACAD
 70
     0
  0
APPID
  5
215
330
9
100
AcDbSymbolTableRecord
100
AcDbRegAppTableRecord
  2
DCO15
 70
     0
  0
ENDTAB
  0
TABLE
  2
DIMSTYLE
  5
A
330
0
100
AcDbSymbolTable
 70
     1
100
AcDbDimStyleTable
 71
     0
  0
DIMSTYLE
105
1DD
330
A
100
AcDbSymbolTableRecord
100
AcDbDimStyleTableRecord
  2
Standard
 70
     0
340
11
  0
ENDTAB
  0
TABLE
  2
BLOCK_RECORD
  5
1
330
0
100
AcDbSymbolTable
 70
     2
  0
BLOCK_RECORD
  5
1E
330
1
100
AcDbSymbolTableRecord
100
AcDbBlockTableRecord
  2
*Model_Space
340
21
  0
BLOCK_RECORD
  5
1A
330
1
100
AcDbSymbolTableRecord
100
AcDbBlockTableRecord
  2
*Paper_Space
340
1D
  0
BLOCK_RECORD
  5
28
330
1
100
AcDbSymbolTableRecord
100
AcDbBlockTableRecord
  2
OBJECT_0
340
0
102
{BLKREFS
331
1DB
102
}
  0
BLOCK_RECORD
  5
2B
330
1
100
AcDbSymbolTableRecord
100
AcDbBlockTableRecord
  2
OBJECT_1
340
0
102
{BLKREFS
331
1DC
102
}
  0
ENDTAB
  0
ENDSEC
  0
SECTION
  2
BLOCKS
  0
BLOCK
  5
1F
330
1E
100
AcDbEntity
  8
0
100
AcDbBlockBegin
  2
*Model_Space
 70
     0
 10
0.0
 20
0.0
 30
0.0
  3
*Model_Space
  1

  0
ENDBLK
  5
20
330
1E
100
AcDbEntity
  8
0
100
AcDbBlockEnd
  0
BLOCK
  5
1B
330
1A
100
AcDbEntity
 67
     1
  8
0
100
AcDbBlockBegin
  2
*Paper_Space
 70
     0
 10
0.0
 20
0.0
 30
0.0
  3
*Paper_Space
  1

  0
ENDBLK
  5
1C
330
1A
100
AcDbEntity
 67
     1
  8
0
100
AcDbBlockEnd
  0
BLOCK
  5
29
330
28
100
AcDbEntity
  8
0
100
AcDbBlockBegin
  2
OBJECT_0
 70
     0
 10
0.0
 20
0.0
 30
0.0
  3
OBJECT_0
  1

  0
ENDBLK
  5
2A
330
28
100
AcDbEntity
  8
0
100
AcDbBlockEnd
  0
BLOCK
  5
2C
330
2B
100
AcDbEntity
  8
0
100
AcDbBlockBegin
  2
OBJECT_1
 70
     0
 10
0.0
 20
0.0
 30
0.0
  3
OBJECT_1
  1

  0
ENDBLK
  5
2D
330
2B
100
AcDbEntity
  8
0
100
AcDbBlockEnd
  0
ENDSEC
  0
SECTION
  2
ENTITIES
  0
LINE
  5
2F
330
1E
100
AcDbEntity
  8
AESTHETICS
  6
Continuous
 62
     3
100
AcDbLine
 10
4.990965
 20
0.0
 30
0.0
 11
4.990965
 21
0.460648
 31
0.0
  0
LINE
  5
30
330
1E
100
AcDbEntity
  8
AESTHETICS
  6
Continuous
 62
     3
100
AcDbLine
 10
4.990965
 20
0.460648
 30
0.0
 11
2.939277
 21
0.460648
 31
0.0
  0
ARC
  5
31
330
1E
100
AcDbEntity
  8
AESTHETICS
  6
Continuous
 62
     3
100
AcDbCircle
 10
2.939277
 20
0.507523
 30
0.0
 40
0.046875
100
AcDbArc
 50
180.0000039999999
 51
269.999996
  0
LINE
  5
32
330
1E
100
AcDbEntity
  8
AESTHETICS
  6
Continuous
 62
     3
100
AcDbLine
 10
2.892402
 20
0.8427100000000001
 30
0.0
 11
2.892402
 21
0.507523
 31
0.0
  0
LINE
  5
33
330
1E
100
AcDbEntity
  8
AESTHETICS
  6
Continuous
 62
     3
100
AcDbLine
 10
2.892402
 20
0.8427100000000001
 30
0.0
 11
2.491715
 21
0.8427100000000001
 31
0.0
  0
ARC
  5
34
330
1E
100
AcDbEntity
  8
AESTHETICS
  6
Continuous
 62
     3
100
AcDbCircle
 10
2.491715
 20
0.90571
 30
0.0
 40
0.0630000000000001
100
AcDbArc
 50
90.75456400000014
 51
270.0
  0
CIRCLE
  5
36
330
1E
100
AcDbEntity
  8
MECHANISM
  6
Continuous
 62
     1
100
AcDbCircle
 10
3.704563999999999
 20
1.553036
 30
0.0
 40
0.063
  0
CIRCLE
  5
37
330
1E
100
AcDbEntity
  8
MECHANISM
  6
Continuous
 62
     1
100
AcDbCircle
 10
2.573138999999999
 20
1.553036
 30
0.0
 40
0.063
  0
LINE
  5
38
330
1E
100
AcDbEntity
  8
AESTHETICS
  6
Continuous
 62
     3
100
AcDbLine
 10
2.490885337531458
 20
0.9687045367487396
 30
0.0
 11
2.523633
 21
0.9686959999999999
 31
0.0
  0
LINE
  5
39
330
1E
100
AcDbEntity
  8
AESTHETICS
  6
Continuous
 62
     3
100
AcDbLine
 10
2.446935999999999
 20
1.660581999999999
 30
0.0
 11
2.282793999999999
 21
1.058487
 31
0.0
  0
LINE
  5
3A
330
1E
100
AcDbEntity
  8
AESTHETICS
  6
Continuous
 62
     3
100
AcDbLine
 10
2.523633
 20
0.9686959999999999
 30
0.0
 11
2.472388999999999
 21
0.9858409999999999
 31
0.0
  0
LINE
  5
3B
330
1E
100
AcDbEntity
  8
AESTHETICS
  6
Continuous
 62
     3
100
AcDbLine
 10
0.955384
 20
1.549278
 30
0.0
 11
0.8484339999999999
 21
1.174949999999999
 31
0.0
  0
ARC
  5
3C
330
1E
100
AcDbEntity
  8
AESTHETICS
  6
Continuous
 62
     3
100
AcDbCircle
 10
1.000456
 20
1.536399999999999
 30
0.0
 40
0.046875
100
AcDbArc
 50
90.0
 51
164.0547
  0
LINE
  5
3D
330
1E
100
AcDbEntity
  8
AESTHETICS
  6
Continuous
 62
     3
100
AcDbLine
 10
2.282793999999999
 20
1.058487
 30
0.0
 11
2.242286999999999
 21
1.000095999999999
 31
0.0
  0
ARC
  5
3E
330
1E
100
AcDbEntity
  8
AESTHETICS
  6
Continuous
 62
     3
100
AcDbCircle
 10
2.487261
 20
1.030294
 30
0.0
 40
0.046875
100
AcDbArc
 50
194.727907
 51
251.5017100000001
  0
LINE
  5
3F
330
1E
100
AcDbEntity
  8
MECHANISM
  6
Continuous
 62
     1
100
AcDbLine
 10
3.414715
 20
2.408252
 30
0.0
 11
3.414715
 21
0.8427100000000001
 31
0.0
  0
LINE
  5
40
330
1E
100
AcDbEntity
  8
MECHANISM
  6
Continuous
 62
     1
100
AcDbLine
 10
2.422215
 20
2.408252
 30
0.0
 11
2.422215
 21
0.8427100000000001
 31
0.0
  0
LINE
  5
41
330
1E
100
AcDbEntity
  8
MECHANISM
  6
Continuous
 62
     1
100
AcDbLine
 10
1.203277
 20
0.8427100000000001
 30
0.0
 11
1.203277
 21
2.408252
 31
0.0
  0
LINE
  5
42
330
1E
100
AcDbEntity
  8
AESTHETICS
  6
Continuous
 62
     3
100
AcDbLine
 10
2.441927
 20
1.018377
 30
0.0
 11
2.437822999999999
 21
1.033989999999999
 31
0.0
  0
ARC
  5
43
330
1E
100
AcDbEntity
  8
AESTHETICS
  6
Continuous
 62
     3
100
AcDbCircle
 10
2.483156999999999
 20
1.045906999999999
 30
0.0
 40
0.046875
100
AcDbArc
 50
164.716823
 51
194.727913
  0
LINE
  5
44
330
1E
100
AcDbEntity
  8
AESTHETICS
  6
Continuous
 62
     3
100
AcDbLine
 10
2.43794
 20
1.058262
 30
0.0
 11
2.558240999999999
 21
1.498517
 31
0.0
  0
ARC
  5
45
330
1E
100
AcDbEntity
  8
AESTHETICS
  6
Continuous
 62
     3
100
AcDbCircle
 10
2.616732608276791
 20
1.477220511803807
 30
0.0
 40
0.0622471869342461
100
AcDbArc
 50
102.3123095137743
 51
159.9936627096876
  0
CIRCLE
  5
46
330
1E
100
AcDbEntity
  8
MECHANISM
  6
Continuous
 62
     1
100
AcDbCircle
 10
1.203277
 20
0.90571
 30
0.0
 40
0.063
  0
LINE
  5
47
330
1E
100
AcDbEntity
  8
AESTHETICS
  6
Continuous
 62
     3
100
AcDbLine
 10
1.349903
 20
1.583274999999999
 30
0.0
 11
1.000456
 21
1.583274999999999
 31
0.0
  0
LINE
  5
48
330
1E
100
AcDbEntity
  8
AESTHETICS
  6
Continuous
 62
     3
100
AcDbLine
 10
2.242286999999999
 20
1.000095999999999
 30
0.0
 11
2.148668
 21
0.9687789999999999
 31
0.0
  0
ARC
  5
49
330
1E
100
AcDbEntity
  8
AESTHETICS
  6
Continuous
 62
     3
100
AcDbCircle
 10
1.314586
 20
1.397479
 30
0.0
 40
0.189123
100
AcDbArc
 50
349.372146
 51
79.23758200000003
  0
LINE
  5
4A
330
1E
100
AcDbEntity
  8
AESTHETICS
  6
Continuous
 62
     3
100
AcDbLine
 10
2.603458999999999
 20
1.538035999999999
 30
0.0
 11
3.638263999999999
 21
1.538035999999999
 31
0.0
  0
ARC
  5
4B
330
1E
100
AcDbEntity
  8
AESTHETICS
  6
Continuous
 62
     3
100
AcDbCircle
 10
3.630666846928881
 20
1.484639481616611
 30
0.0
 40
0.0539342647141269
100
AcDbArc
 50
348.7397599285674
 51
81.90241567621539
  0
LINE
  5
4C
330
1E
100
AcDbEntity
  8
AESTHETICS
  6
Continuous
 62
     3
100
AcDbLine
 10
3.683562999999999
 20
1.474108
 30
0.0
 11
3.652159999999999
 21
1.356084999999999
 31
0.0
  0
ARC
  5
4D
330
1E
100
AcDbEntity
  8
AESTHETICS
  6
Continuous
 62
     3
100
AcDbCircle
 10
3.922206999999999
 20
1.256854999999999
 30
0.0
 40
0.287701
100
AcDbArc
 50
159.823869
 51
209.602788
  0
LINE
  5
4E
330
1E
100
AcDbEntity
  8
MECHANISM
  6
Continuous
 62
     1
100
AcDbLine
 10
2.573138999999999
 20
1.553036
 30
0.0
 11
3.704563999999999
 21
1.553036
 31
0.0
  0
ARC
  5
4F
330
1E
100
AcDbEntity
  8
AESTHETICS
  6
Continuous
 62
     3
100
AcDbCircle
 10
3.631301999999999
 20
1.091579
 30
0.0
 40
0.046875
100
AcDbArc
 50
335.039266
 51
29.60278799999998
  0
ARC
  5
50
330
1E
100
AcDbEntity
  8
AESTHETICS
  6
Continuous
 62
     3
100
AcDbCircle
 10
2.730179
 20
1.511028
 30
0.0
 40
1.040837
100
AcDbArc
 50
328.088288
 51
335.039266
  0
LINE
  5
51
330
1E
100
AcDbEntity
  8
AESTHETICS
  6
Continuous
 62
     3
100
AcDbLine
 10
2.148668
 20
0.9687789999999999
 30
0.0
 11
2.352715
 21
0.9687099999999999
 31
0.0
  0
CIRCLE
  5
53
330
1E
100
AcDbEntity
  8
MECHANISM
  6
Continuous
 62
     1
100
AcDbCircle
 10
2.422215
 20
0.90571
 30
0.0
 40
0.063
  0
ARC
  5
54
330
1E
100
AcDbEntity
  8
AESTHETICS
  6
Continuous
 62
     3
100
AcDbCircle
 10
2.352715
 20
0.90571
 30
0.0
 40
0.063
100
AcDbArc
 50
270.000003
 51
90.0
  0
ARC
  5
55
330
1E
100
AcDbEntity
  8
AESTHETICS
  6
Continuous
 62
     3
100
AcDbCircle
 10
3.270366999999999
 20
1.236380999999999
 30
0.0
 40
0.44024
100
AcDbArc
 50
292.219692
 51
321.2508540000001
  0
ARC
  5
56
330
1E
100
AcDbEntity
  8
AESTHETICS
  6
Continuous
 62
     3
100
AcDbCircle
 10
3.414715
 20
0.90571
 30
0.0
 40
0.08
100
AcDbArc
 50
108.834564
 51
286.060917
  0
ARC
  5
57
330
1E
100
AcDbEntity
  8
AESTHETICS
  6
Continuous
 62
     3
100
AcDbCircle
 10
3.364401
 20
1.054872
 30
0.0
 40
0.07742
100
AcDbArc
 50
288.43878
 51
108.9056049999999
  0
ARC
  5
58
330
1E
100
AcDbEntity
  8
AESTHETICS
  6
Continuous
 62
     3
100
AcDbCircle
 10
3.422646999999999
 20
0.9043389999999998
 30
0.0
 40
0.238789
100
AcDbArc
 50
110.424426
 51
284.043698
  0
ARC
  5
59
330
1E
100
AcDbEntity
  8
AESTHETICS
  6
Continuous
 62
     3
100
AcDbCircle
 10
3.388476
 20
1.096233
 30
0.0
 40
0.4334470000000001
100
AcDbArc
 50
282.270021
 51
332.7051760000001
  0
ARC
  5
5A
330
1E
100
AcDbEntity
  8
AESTHETICS
  6
Continuous
 62
     3
100
AcDbCircle
 10
2.703781
 20
1.489024999999999
 30
0.0
 40
1.222533
100
AcDbArc
 50
331.06098
 51
333.947019
  0
ARC
  5
5B
330
1E
100
AcDbEntity
  8
AESTHETICS
  6
Continuous
 62
     3
100
AcDbCircle
 10
3.844201999999999
 20
0.9314979999999998
 30
0.0
 40
0.046875
100
AcDbArc
 50
76.517732
 51
153.947019
  0
CIRCLE
  5
5C
330
1E
100
AcDbEntity
  8
MECHANISM
  6
Continuous
 62
     1
100
AcDbCircle
 10
3.414715
 20
0.90571
 30
0.0
 40
0.063
  0
LINE
  5
5D
330
1E
100
AcDbEntity
  8
MECHANISM
  6
Continuous
 62
     1
100
AcDbLine
 10
3.461476
 20
0.8634909999999999
 30
0.0
 11
3.367954
 21
0.947929
 31
0.0
  0
LINE
  5
5E
330
1E
100
AcDbEntity
  8
MECHANISM
  6
Continuous
 62
     1
100
AcDbLine
 10
3.367954
 20
0.8634909999999999
 30
0.0
 11
3.461476
 21
0.947929
 31
0.0
  0
ARC
  5
5F
330
1E
100
AcDbEntity
  8
AESTHETICS
  6
Continuous
 62
     3
100
AcDbCircle
 10
3.922206999999999
 20
1.256854999999999
 30
0.0
 40
0.287701
100
AcDbArc
 50
256.517721
 51
276.335146
  0
LINE
  5
60
330
1E
100
AcDbEntity
  8
AESTHETICS
  6
Continuous
 62
     3
100
AcDbLine
 10
3.953952999999999
 20
0.9709100000000001
 30
0.0
 11
4.078087
 21
0.9725459999999998
 31
0.0
  0
ARC
  5
61
330
1E
100
AcDbEntity
  8
AESTHETICS
  6
Continuous
 62
     3
100
AcDbCircle
 10
4.094088
 20
1.401993
 30
0.0
 40
0.429745
100
AcDbArc
 50
267.8660799999999
 51
350.910558
  0
LINE
  5
62
330
1E
100
AcDbEntity
  8
AESTHETICS
  6
Continuous
 62
     3
100
AcDbLine
 10
4.518437
 20
1.334103
 30
0.0
 11
4.766742999999999
 21
2.200115
 31
0.0
  0
ARC
  5
63
330
1E
100
AcDbEntity
  8
AESTHETICS
  6
Continuous
 62
     3
100
AcDbCircle
 10
4.811801999999999
 20
2.187195999999999
 30
0.0
 40
0.046875
100
AcDbArc
 50
116.33559
 51
164.00117
  0
LINE
  5
64
330
1E
100
AcDbEntity
  8
AESTHETICS
  6
Continuous
 62
     3
100
AcDbLine
 10
4.791006999999999
 20
2.229206
 30
0.0
 11
4.897908
 21
2.282122
 31
0.0
  0
LINE
  5
65
330
1E
100
AcDbEntity
  8
AESTHETICS
  6
Continuous
 62
     3
100
AcDbLine
 10
4.897908
 20
2.282122
 30
0.0
 11
4.498026999999999
 21
2.280410999999999
 31
0.0
  0
LINE
  5
66
330
1E
100
AcDbEntity
  8
AESTHETICS
  6
Continuous
 62
     3
100
AcDbLine
 10
2.352715003298672
 20
0.8427100000000001
 30
0.0
 11
1.272777003298672
 21
0.8427100000000001
 31
0.0
  0
LINE
  5
67
330
1E
100
AcDbEntity
  8
MECHANISM
  6
Continuous
 62
     1
100
AcDbLine
 10
1.140276999999999
 20
2.345251999999999
 30
0.0
 11
2.281931
 21
2.345256
 31
0.0
  0
LINE
  5
68
330
1E
100
AcDbEntity
  8
AESTHETICS
  6
Continuous
 62
     3
100
AcDbLine
 10
4.585816
 20
2.236955
 30
0.0
 11
4.498026999999999
 21
2.280410999999999
 31
0.0
  0
CIRCLE
  5
69
330
1E
100
AcDbEntity
  8
MECHANISM
  6
Continuous
 62
     1
100
AcDbCircle
 10
1.203277
 20
2.345251999999999
 30
0.0
 40
0.063
  0
ARC
  5
6A
330
1E
100
AcDbEntity
  8
AESTHETICS
  6
Continuous
 62
     3
100
AcDbCircle
 10
1.192712
 20
1.429654999999999
 30
0.0
 40
0.3149739999999999
100
AcDbArc
 50
267.259198
 51
347.7079240000001
  0
LINE
  5
6B
330
1E
100
AcDbEntity
  8
AESTHETICS
  6
Continuous
 62
     3
100
AcDbLine
 10
1.113413999999999
 20
2.102386999999999
 30
0.0
 11
1.023849
 21
1.788907
 31
0.0
  0
ARC
  5
6C
330
1E
100
AcDbEntity
  8
AESTHETICS
  6
Continuous
 62
     3
100
AcDbCircle
 10
1.158486
 20
2.089509
 30
0.0
 40
0.046875
100
AcDbArc
 50
90.030678
 51
164.054709
  0
ARC
  5
6D
330
1E
100
AcDbEntity
  8
AESTHETICS
  6
Continuous
 62
     3
100
AcDbCircle
 10
1.272777
 20
0.90571
 30
0.0
 40
0.063
100
AcDbArc
 50
90.0
 51
270.000003
  0
LINE
  5
6E
330
1E
100
AcDbEntity
  8
AESTHETICS
  6
Continuous
 62
     3
100
AcDbLine
 10
1.519019
 20
2.136576999999999
 30
0.0
 11
1.158460999999999
 21
2.136384
 31
0.0
  0
ARC
  5
6F
330
1E
100
AcDbEntity
  8
AESTHETICS
  6
Continuous
 62
     3
100
AcDbCircle
 10
4.565020999999999
 20
2.194945
 30
0.0
 40
0.046875
100
AcDbArc
 50
344.001178
 51
63.66441
  0
ARC
  5
70
330
1E
100
AcDbEntity
  8
AESTHETICS
  6
Continuous
 62
     3
100
AcDbCircle
 10
1.522283
 20
2.038448999999999
 30
0.0
 40
0.098183
100
AcDbArc
 50
5.678927
 51
91.90562099999999
  0
LINE
  5
71
330
1E
100
AcDbEntity
  8
AESTHETICS
  6
Continuous
 62
     3
100
AcDbLine
 10
1.272777
 20
0.9687099999999999
 30
0.0
 11
1.281215999999999
 21
0.9773809999999999
 31
0.0
  0
ARC
  5
72
330
1E
100
AcDbEntity
  8
AESTHETICS
  6
Continuous
 62
     3
100
AcDbCircle
 10
1.332578
 20
2.017936999999999
 30
0.0
 40
0.288992
100
AcDbArc
 50
267.822318
 51
6.003822999999988
  0
ARC
  5
73
330
1E
100
AcDbEntity
  8
AESTHETICS
  6
Continuous
 62
     3
100
AcDbCircle
 10
1.192712
 20
1.429654999999999
 30
0.0
 40
0.460853
100
AcDbArc
 50
281.07206
 51
347.7079240000001
  0
ARC
  5
74
330
1E
100
AcDbEntity
  8
AESTHETICS
  6
Continuous
 62
     3
100
AcDbCircle
 10
5.395777999999999
 20
1.105858
 30
0.0
 40
4.495162999999999
100
AcDbArc
 50
153.82968
 51
161.600977
  0
LINE
  5
75
330
1E
100
AcDbEntity
  8
AESTHETICS
  6
Continuous
 62
     3
100
AcDbLine
 10
4.378467999999999
 20
1.374236
 30
0.0
 11
4.610079999999999
 21
2.182026
 31
0.0
  0
ARC
  5
76
330
1E
100
AcDbEntity
  8
AESTHETICS
  6
Continuous
 62
     3
100
AcDbCircle
 10
4.038807
 20
1.467416
 30
0.0
 40
0.352211
100
AcDbArc
 50
277.29152
 51
344.659255
  0
LINE
  5
77
330
1E
100
AcDbEntity
  8
AESTHETICS
  6
Continuous
 62
     3
100
AcDbLine
 10
3.937886
 20
1.115629999999999
 30
0.0
 11
4.083508
 21
1.118054
 31
0.0
  0
ARC
  5
78
330
1E
100
AcDbEntity
  8
AESTHETICS
  6
Continuous
 62
     3
100
AcDbCircle
 10
3.922731999999999
 20
1.258104
 30
0.0
 40
0.143278
100
AcDbArc
 50
248.72023
 51
276.071369
  0
ARC
  5
79
330
1E
100
AcDbEntity
  8
AESTHETICS
  6
Continuous
 62
     3
100
AcDbCircle
 10
0.921179
 20
2.570113
 30
0.0
 40
0.214099
100
AcDbArc
 50
309.56729
 51
347.748299
  0
ARC
  5
7A
330
1E
100
AcDbEntity
  8
AESTHETICS
  6
Continuous
 62
     3
100
AcDbCircle
 10
1.397189
 20
1.403801
 30
0.0
 40
0.256212
100
AcDbArc
 50
343.618768
 51
51.66745899999996
  0
ARC
  5
7B
330
1E
100
AcDbEntity
  8
AESTHETICS
  6
Continuous
 62
     3
100
AcDbCircle
 10
2.703781
 20
1.489024999999999
 30
0.0
 40
1.222533
100
AcDbArc
 50
342.6568220000001
 51
11.54991799999997
  0
LINE
  5
7C
330
1E
100
AcDbEntity
  8
AESTHETICS
  6
Continuous
 62
     3
100
AcDbLine
 10
4.02273
 20
2.196657
 30
0.0
 11
3.901557999999999
 21
1.733802999999999
 31
0.0
  0
ARC
  5
7D
330
1E
100
AcDbEntity
  8
AESTHETICS
  6
Continuous
 62
     3
100
AcDbCircle
 10
4.068076999999999
 20
2.184785999999999
 30
0.0
 40
0.046875
100
AcDbArc
 50
153.422883
 51
165.329611
  0
LINE
  5
7E
330
1E
100
AcDbEntity
  8
AESTHETICS
  6
Continuous
 62
     3
100
AcDbLine
 10
4.043187999999999
 20
2.239805
 30
0.0
 11
4.026155
 21
2.205758
 31
0.0
  0
ARC
  5
7F
330
1E
100
AcDbEntity
  8
AESTHETICS
  6
Continuous
 62
     3
100
AcDbCircle
 10
4.08511
 20
2.218833
 30
0.0
 40
0.046875
100
AcDbArc
 50
108.440989
 51
153.422883
  0
LINE
  5
80
330
1E
100
AcDbEntity
  8
AESTHETICS
  6
Continuous
 62
     3
100
AcDbLine
 10
4.126523999999999
 20
2.282054999999999
 30
0.0
 11
4.070281999999999
 21
2.263300999999999
 31
0.0
  0
LINE
  5
81
330
1E
100
AcDbEntity
  8
AESTHETICS
  6
Continuous
 62
     3
100
AcDbLine
 10
4.126523999999999
 20
2.282054999999999
 30
0.0
 11
3.774322
 21
2.282121
 31
0.0
  0
LINE
  5
82
330
1E
100
AcDbEntity
  8
AESTHETICS
  6
Continuous
 62
     3
100
AcDbLine
 10
3.774322
 20
2.282121
 30
0.0
 11
3.830762
 21
2.263300999999999
 31
0.0
  0
ARC
  5
83
330
1E
100
AcDbEntity
  8
AESTHETICS
  6
Continuous
 62
     3
100
AcDbCircle
 10
3.815933999999999
 20
2.218833
 30
0.0
 40
0.046875
100
AcDbArc
 50
26.577117
 51
71.55901899999999
  0
LINE
  5
84
330
1E
100
AcDbEntity
  8
AESTHETICS
  6
Continuous
 62
     3
100
AcDbLine
 10
3.857855999999999
 20
2.239805
 30
0.0
 11
3.869134999999999
 21
2.217258999999999
 31
0.0
  0
ARC
  5
85
330
1E
100
AcDbEntity
  8
AESTHETICS
  6
Continuous
 62
     3
100
AcDbCircle
 10
3.827212999999999
 20
2.196288
 30
0.0
 40
0.046875
100
AcDbArc
 50
345.100087
 51
26.57712599999996
  0
LINE
  5
86
330
1E
100
AcDbEntity
  8
AESTHETICS
  6
Continuous
 62
     3
100
AcDbLine
 10
3.851689
 20
2.105977999999999
 30
0.0
 11
3.872512
 21
2.184234
 31
0.0
  0
ARC
  5
87
330
1E
100
AcDbEntity
  8
AESTHETICS
  6
Continuous
 62
     3
100
AcDbCircle
 10
3.806391
 20
2.118031
 30
0.0
 40
0.046875
100
AcDbArc
 50
209.703457
 51
345.100094
  0
ARC
  5
88
330
1E
100
AcDbEntity
  8
AESTHETICS
  6
Continuous
 62
     3
100
AcDbCircle
 10
2.703781
 20
1.489024999999999
 30
0.0
 40
1.222533
100
AcDbArc
 50
29.70345700000001
 51
40.337915
  0
LINE
  5
89
330
1E
100
AcDbEntity
  8
AESTHETICS
  6
Continuous
 62
     3
100
AcDbLine
 10
3.484214999999999
 20
2.282283999999999
 30
0.0
 11
3.635644
 21
2.280364
 31
0.0
  0
ARC
  5
8A
330
1E
100
AcDbEntity
  8
AESTHETICS
  6
Continuous
 62
     3
100
AcDbCircle
 10
3.484214999999999
 20
2.345283999999999
 30
0.0
 40
0.063
100
AcDbArc
 50
90.0
 51
270.0
  0
ARC
  5
8B
330
1E
100
AcDbEntity
  8
AESTHETICS
  6
Continuous
 62
     3
100
AcDbCircle
 10
1.585170999999999
 20
1.641549
 30
0.0
 40
0.046875
100
AcDbArc
 50
113.567113
 51
231.667459
  0
ARC
  5
8C
330
1E
100
AcDbEntity
  8
AESTHETICS
  6
Continuous
 62
     3
100
AcDbCircle
 10
2.257795999999999
 20
3.639776
 30
0.0
 40
0.8218790000000002
100
AcDbArc
 50
307.43959
 51
325.306818
  0
ARC
  5
8D
330
1E
100
AcDbEntity
  8
AESTHETICS
  6
Continuous
 62
     3
100
AcDbCircle
 10
2.972096
 20
3.145297
 30
0.0
 40
0.046875
100
AcDbArc
 50
0.4302159999999999
 51
145.306818
  0
LINE
  5
8E
330
1E
100
AcDbEntity
  8
AESTHETICS
  6
Continuous
 62
     3
100
AcDbLine
 10
3.484214999999999
 20
2.408284
 30
0.0
 11
3.499903999999999
 21
2.412033
 31
0.0
  0
ARC
  5
8F
330
1E
100
AcDbEntity
  8
AESTHETICS
  6
Continuous
 62
     3
100
AcDbCircle
 10
4.221753999999999
 20
3.154681
 30
0.0
 40
1.202817999999999
100
AcDbArc
 50
180.430216
 51
218.355584
  0
LINE
  5
90
330
1E
100
AcDbEntity
  8
AESTHETICS
  6
Continuous
 62
     3
100
AcDbLine
 10
3.345215
 20
2.408284
 30
0.0
 11
3.278533999999999
 21
2.408284
 31
0.0
  0
ARC
  5
91
330
1E
100
AcDbEntity
  8
AESTHETICS
  6
Continuous
 62
     3
100
AcDbCircle
 10
3.345215
 20
2.345283999999999
 30
0.0
 40
0.063
100
AcDbArc
 50
270.0
 51
90.0
  0
LINE
  5
92
330
1E
100
AcDbEntity
  8
MECHANISM
  6
Continuous
 62
     1
100
AcDbLine
 10
2.126398
 20
2.345251999999999
 30
0.0
 11
3.477715
 21
2.345286
 31
0.0
  0
CIRCLE
  5
93
330
1E
100
AcDbEntity
  8
MECHANISM
  6
Continuous
 62
     1
100
AcDbCircle
 10
2.422215
 20
2.345251999999999
 30
0.0
 40
0.063
  0
ARC
  5
94
330
1E
100
AcDbEntity
  8
AESTHETICS
  6
Continuous
 62
     3
100
AcDbCircle
 10
3.025822136885454
 20
1.625999302448704
 30
0.0
 40
0.7299459393840628
100
AcDbArc
 50
7.538692059531475
 51
64.0383130586783
  0
LINE
  5
95
330
1E
100
AcDbEntity
  8
AESTHETICS
  6
Continuous
 62
     3
100
AcDbLine
 10
3.749458999999999
 20
1.721765
 30
0.0
 11
3.719151
 21
1.607858
 31
0.0
  0
ARC
  5
96
330
1E
100
AcDbEntity
  8
AESTHETICS
  6
Continuous
 62
     3
100
AcDbCircle
 10
1.429881999999999
 20
1.997547999999999
 30
0.0
 40
0.341518
100
AcDbArc
 50
293.567113
 51
10.98071200000007
  0
ARC
  5
97
330
1E
100
AcDbEntity
  8
AESTHETICS
  6
Continuous
 62
     3
100
AcDbCircle
 10
1.522283
 20
2.038448999999999
 30
0.0
 40
0.244062
100
AcDbArc
 50
5.678927
 51
91.90562099999999
  0
LINE
  5
98
330
1E
100
AcDbEntity
  8
AESTHETICS
  6
Continuous
 62
     3
100
AcDbLine
 10
1.514167999999999
 20
2.282375999999999
 30
0.0
 11
1.274590291393875
 21
2.282279100848676
 31
0.0
  0
ARC
  5
99
330
1E
100
AcDbEntity
  8
AESTHETICS
  6
Continuous
 62
     3
100
AcDbCircle
 10
3.660696637235618
 20
1.628676221857119
 30
0.0
 40
0.0620507862669216
100
AcDbArc
 50
282.2401463564475
 51
340.3968501581374
  0
LINE
  5
9A
330
1E
100
AcDbEntity
  8
AESTHETICS
  6
Continuous
 62
     3
100
AcDbLine
 10
3.673851999999999
 20
1.568036
 30
0.0
 11
2.640006
 21
1.568036
 31
0.0
  0
ARC
  5
9B
330
1E
100
AcDbEntity
  8
AESTHETICS
  6
Continuous
 62
     3
100
AcDbCircle
 10
2.647558399489098
 20
1.621384185201976
 30
0.0
 40
0.0538801225164466
100
AcDbArc
 50
168.3473682389038
 51
261.942292072569
  0
LINE
  5
9C
330
1E
100
AcDbEntity
  8
AESTHETICS
  6
Continuous
 62
     3
100
AcDbLine
 10
2.594789
 20
1.632266999999999
 30
0.0
 11
2.597595999999999
 21
1.64254
 31
0.0
  0
ARC
  5
9D
330
1E
100
AcDbEntity
  8
AESTHETICS
  6
Continuous
 62
     3
100
AcDbCircle
 10
2.642813
 20
1.630184
 30
0.0
 40
0.046875
100
AcDbArc
 50
135.882018
 51
164.716831
  0
LINE
  5
9E
330
1E
100
AcDbEntity
  8
AESTHETICS
  6
Continuous
 62
     3
100
AcDbLine
 10
3.143781999999999
 20
2.214154999999999
 30
0.0
 11
2.609160999999999
 21
1.662815
 31
0.0
  0
ARC
  5
9F
330
1E
100
AcDbEntity
  8
AESTHETICS
  6
Continuous
 62
     3
100
AcDbCircle
 10
1.272777
 20
2.345252999999999
 30
0.0
 40
0.0630000000000004
100
AcDbArc
 50
88.90244800000038
 51
271.6493379999995
  0
LINE
  5
A0
330
1E
100
AcDbEntity
  8
AESTHETICS
  6
Continuous
 62
     3
100
AcDbLine
 10
1.273983747649542
 20
2.408241441480245
 30
0.0
 11
1.308699999999999
 21
2.408241999999999
 31
0.0
  0
ARC
  5
A1
330
1E
100
AcDbEntity
  8
AESTHETICS
  6
Continuous
 62
     3
100
AcDbCircle
 10
-1.193610999999999
 20
2.920408999999999
 30
0.0
 40
2.554187999999999
100
AcDbArc
 50
348.432607
 51
3.243937000000052
  0
ARC
  5
A2
330
1E
100
AcDbEntity
  8
AESTHETICS
  6
Continuous
 62
     3
100
AcDbCircle
 10
1.403284
 20
3.067595999999999
 30
0.0
 40
0.046875
100
AcDbArc
 50
84.96318499999999
 51
183.243937
  0
ARC
  5
A3
330
1E
100
AcDbEntity
  8
AESTHETICS
  6
Continuous
 62
     3
100
AcDbCircle
 10
1.582405999999999
 20
5.099923
 30
0.0
 40
1.993331
100
AcDbArc
 50
264.963185
 51
290.272268
  0
ARC
  5
A4
330
1E
100
AcDbEntity
  8
AESTHETICS
  6
Continuous
 62
     3
100
AcDbCircle
 10
2.289299999999999
 20
3.186093999999999
 30
0.0
 40
0.046875
100
AcDbArc
 50
347.763726
 51
110.272315
  0
ARC
  5
A5
330
1E
100
AcDbEntity
  8
AESTHETICS
  6
Continuous
 62
     3
100
AcDbCircle
 10
3.177433999999999
 20
2.181522999999999
 30
0.0
 40
0.046875
100
AcDbArc
 50
116.466073
 51
135.882025
  0
LINE
  5
A6
330
1E
100
AcDbEntity
  8
AESTHETICS
  6
Continuous
 62
     3
100
AcDbLine
 10
3.156543
 20
2.223485999999999
 30
0.0
 11
3.197131757365369
 21
2.282121
 31
0.0
  0
LINE
  5
A7
330
1E
100
AcDbEntity
  8
AESTHETICS
  6
Continuous
 62
     3
100
AcDbLine
 10
3.197131757365369
 20
2.282121
 30
0.0
 11
3.034099
 21
2.282181
 31
0.0
  0
CIRCLE
  5
A8
330
1E
100
AcDbEntity
  8
MECHANISM
  6
Continuous
 62
     1
100
AcDbCircle
 10
3.414715
 20
2.345251999999999
 30
0.0
 40
0.063
  0
ARC
  5
A9
330
1E
100
AcDbEntity
  8
AESTHETICS
  6
Continuous
 62
     3
100
AcDbCircle
 10
4.170176999999999
 20
3.083665
 30
0.0
 40
0.9488709999999999
100
AcDbArc
 50
173.91258
 51
225.058031
  0
ARC
  5
AA
330
1E
100
AcDbEntity
  8
AESTHETICS
  6
Continuous
 62
     3
100
AcDbCircle
 10
2.682047999999999
 20
3.326205999999999
 30
0.0
 40
0.562795
100
AcDbArc
 50
345.3944180000001
 51
59.47717800000005
  0
ARC
  5
AB
330
1E
100
AcDbEntity
  8
AESTHETICS
  6
Continuous
 62
     3
100
AcDbCircle
 10
2.569547
 20
3.303455999999999
 30
0.0
 40
0.6452010000000001
100
AcDbArc
 50
51.874926
 51
114.360353
  0
ARC
  5
AC
330
1E
100
AcDbEntity
  8
AESTHETICS
  6
Continuous
 62
     3
100
AcDbCircle
 10
1.904041999999999
 20
5.147126
 30
0.0
 40
1.317882999999999
100
AcDbArc
 50
258.122837
 51
287.6405240000001
  0
ARC
  5
AD
330
1E
100
AcDbEntity
  8
AESTHETICS
  6
Continuous
 62
     3
100
AcDbCircle
 10
1.020889999999999
 20
2.934581999999999
 30
0.0
 40
1.10731
100
AcDbArc
 50
56.453609
 51
69.63369
  0
ARC
  5
AE
330
1E
100
AcDbEntity
  8
AESTHETICS
  6
Continuous
 62
     3
100
AcDbCircle
 10
0.529807
 20
3.233797
 30
0.0
 40
1.146341999999999
100
AcDbArc
 50
40.131904
 51
56.20601
  0
ARC
  5
AF
330
1E
100
AcDbEntity
  8
AESTHETICS
  6
Continuous
 62
     3
100
AcDbCircle
 10
0.9518679999999999
 20
3.87324
 30
0.0
 40
0.380215
100
AcDbArc
 50
55.465683
 51
67.23486
  0
ARC
  5
B0
330
1E
100
AcDbEntity
  8
AESTHETICS
  6
Continuous
 62
     3
100
AcDbCircle
 10
1.117132
 20
4.267058999999999
 30
0.0
 40
0.046875
100
AcDbArc
 50
198.175768
 51
247.23486
  0
ARC
  5
B1
330
1E
100
AcDbEntity
  8
AESTHETICS
  6
Continuous
 62
     3
100
AcDbCircle
 10
0.874878
 20
4.187523
 30
0.0
 40
0.208102
100
AcDbArc
 50
18.175776
 51
55.95619800000001
  0
ARC
  5
B2
330
1E
100
AcDbEntity
  8
AESTHETICS
  6
Continuous
 62
     3
100
AcDbCircle
 10
0.183759
 20
4.542482999999999
 30
0.0
 40
0.8279879999999998
100
AcDbArc
 50
342.412537
 51
347.264942
  0
ARC
  5
B3
330
1E
100
AcDbEntity
  8
AESTHETICS
  6
Continuous
 62
     3
100
AcDbCircle
 10
2.703781
 20
1.489024999999999
 30
0.0
 40
1.222633
100
AcDbArc
 50
331.06098
 51
40.33383499999998
  0
ARC
  5
B4
330
1E
100
AcDbEntity
  8
AESTHETICS
  6
Continuous
 62
     3
100
AcDbCircle
 10
0.9283610000000001
 20
4.306460999999999
 30
0.0
 40
0.046875
100
AcDbArc
 50
269.7746439999999
 51
342.412537
  0
LINE
  5
B5
330
1E
100
AcDbEntity
  8
AESTHETICS
  6
Continuous
 62
     3
100
AcDbLine
 10
3.034099
 20
2.282181
 30
0.0
 11
2.853057
 21
2.282181
 31
0.0
  0
ARC
  5
B6
330
1E
100
AcDbEntity
  8
AESTHETICS
  6
Continuous
 62
     3
100
AcDbCircle
 10
0.927753
 20
4.151938999999999
 30
0.0
 40
0.107648
100
AcDbArc
 50
89.774644
 51
92.12561299999999
  0
ARC
  5
B7
330
1E
100
AcDbEntity
  8
AESTHETICS
  6
Continuous
 62
     3
100
AcDbCircle
 10
0.9220219999999999
 20
4.306356
 30
0.0
 40
0.046875
100
AcDbArc
 50
210.088308
 51
272.125613
  0
ARC
  5
B8
330
1E
100
AcDbEntity
  8
AESTHETICS
  6
Continuous
 62
     3
100
AcDbCircle
 10
0.6760070000000001
 20
4.163812999999999
 30
0.0
 40
0.237451
100
AcDbArc
 50
30.088308
 51
56.77231599999999
  0
ARC
  5
B9
330
1E
100
AcDbEntity
  8
AESTHETICS
  6
Continuous
 62
     3
100
AcDbCircle
 10
0.285162
 20
4.202879
 30
0.0
 40
0.544848
100
AcDbArc
 50
8.322916000000001
 51
17.028966
  0
ARC
  5
BA
330
1E
100
AcDbEntity
  8
AESTHETICS
  6
Continuous
 62
     3
100
AcDbCircle
 10
0.777891
 20
4.274962
 30
0.0
 40
0.046875
100
AcDbArc
 50
294.459359
 51
8.322916000000013
  0
ARC
  5
BB
330
1E
100
AcDbEntity
  8
AESTHETICS
  6
Continuous
 62
     3
100
AcDbCircle
 10
0.8676649999999998
 20
4.077599
 30
0.0
 40
0.169947
100
AcDbArc
 50
114.459346
 51
141.751333
  0
ARC
  5
BC
330
1E
100
AcDbEntity
  8
AESTHETICS
  6
Continuous
 62
     3
100
AcDbCircle
 10
0.752578
 20
4.156723999999999
 30
0.0
 40
0.031908
100
AcDbArc
 50
125.165398
 51
203.0821040000001
  0
ARC
  5
BD
330
1E
100
AcDbEntity
  8
AESTHETICS
  6
Continuous
 62
     3
100
AcDbCircle
 10
0.67603
 20
4.140490999999999
 30
0.0
 40
0.047342
100
AcDbArc
 50
316.12255
 51
4.511297000000009
  0
LINE
  5
BE
330
1E
100
AcDbEntity
  8
AESTHETICS
  6
Continuous
 62
     3
100
AcDbLine
 10
2.915502999999999
 20
2.251093
 30
0.0
 11
2.853057
 21
2.282181
 31
0.0
  0
ARC
  5
BF
330
1E
100
AcDbEntity
  8
AESTHETICS
  6
Continuous
 62
     3
100
AcDbCircle
 10
-0.4629310000000001
 20
5.240719999999999
 30
0.0
 40
1.630924999999999
100
AcDbArc
 50
313.0099850000001
 51
315.994785
  0
ARC
  5
C0
330
1E
100
AcDbEntity
  8
AESTHETICS
  6
Continuous
 62
     3
100
AcDbCircle
 10
0.6712690000000001
 20
4.015725999999999
 30
0.0
 40
0.039002
100
AcDbArc
 50
123.814056
 51
241.097098
  0
ARC
  5
C1
330
1E
100
AcDbEntity
  8
AESTHETICS
  6
Continuous
 62
     3
100
AcDbCircle
 10
3.010914
 20
3.029598
 30
0.0
 40
0.6915140000000001
100
AcDbArc
 50
167.763726
 51
178.543008
  0
ARC
  5
C2
330
1E
100
AcDbEntity
  8
AESTHETICS
  6
Continuous
 62
     3
100
AcDbCircle
 10
0.753463
 20
4.017758999999999
 30
0.0
 40
0.107326
100
AcDbArc
 50
199.698711
 51
293.512494
  0
ARC
  5
C3
330
1E
100
AcDbEntity
  8
AESTHETICS
  6
Continuous
 62
     3
100
AcDbCircle
 10
3.464191999999999
 20
3.23855
 30
0.0
 40
1.160457
100
AcDbArc
 50
189.491921
 51
199.642455
  0
ARC
  5
C4
330
1E
100
AcDbEntity
  8
AESTHETICS
  6
Continuous
 62
     3
100
AcDbCircle
 10
1.187815999999999
 20
2.257925999999999
 30
0.0
 40
1.322604
100
AcDbArc
 50
17.936047
 51
26.519029
  0
ARC
  5
C5
330
1E
100
AcDbEntity
  8
AESTHETICS
  6
Continuous
 62
     3
100
AcDbCircle
 10
0.772833
 20
4.190755999999999
 30
0.0
 40
0.272423
100
AcDbArc
 50
274.937768
 51
295.077007
  0
ARC
  5
C6
330
1E
100
AcDbEntity
  8
AESTHETICS
  6
Continuous
 62
     3
100
AcDbCircle
 10
2.894612
 20
2.20913
 30
0.0
 40
0.046875
100
AcDbArc
 50
314.960811
 51
63.53392699999995
  0
ARC
  5
C7
330
1E
100
AcDbEntity
  8
AESTHETICS
  6
Continuous
 62
     3
100
AcDbCircle
 10
0.8876629999999998
 20
3.849999
 30
0.0
 40
0.094015
100
AcDbArc
 50
44.69190199999999
 51
89.61461800000002
  0
ARC
  5
C8
330
1E
100
AcDbEntity
  8
AESTHETICS
  6
Continuous
 62
     3
100
AcDbCircle
 10
0.261849
 20
3.507162
 30
0.0
 40
0.804368
100
AcDbArc
 50
357.404355
 51
30.558672
  0
ARC
  5
C9
330
1E
100
AcDbEntity
  8
AESTHETICS
  6
Continuous
 62
     3
100
AcDbCircle
 10
1.991191999999999
 20
3.363636
 30
0.0
 40
0.9319739999999999
100
AcDbArc
 50
173.401239
 51
193.030067
  0
ARC
  5
CA
330
1E
100
AcDbEntity
  8
AESTHETICS
  6
Continuous
 62
     3
100
AcDbCircle
 10
-989.350914
 20
228.656005
 30
0.0
 40
1015.781048
100
AcDbArc
 50
347.140255
 51
347.1735220000001
  0
ARC
  5
CB
330
1E
100
AcDbEntity
  8
AESTHETICS
  6
Continuous
 62
     3
100
AcDbCircle
 10
0.906417
 20
2.588915999999999
 30
0.0
 40
0.046875
100
AcDbArc
 50
314.823472
 51
347.140255
  0
ARC
  5
CC
330
1E
100
AcDbEntity
  8
AESTHETICS
  6
Continuous
 62
     3
100
AcDbCircle
 10
0.8549049999999999
 20
2.640746
 30
0.0
 40
0.119949
100
AcDbArc
 50
261.837223
 51
314.823469
  0
ARC
  5
CD
330
1E
100
AcDbEntity
  8
AESTHETICS
  6
Continuous
 62
     3
100
AcDbCircle
 10
0.8312190000000001
 20
2.475611999999999
 30
0.0
 40
0.046875
100
AcDbArc
 50
81.83722299999999
 51
102.304419
  0
ARC
  5
CE
330
1E
100
AcDbEntity
  8
AESTHETICS
  6
Continuous
 62
     3
100
AcDbCircle
 10
0.8478559999999999
 20
2.399335999999999
 30
0.0
 40
0.124944
100
AcDbArc
 50
102.304419
 51
175.919268
  0
LINE
  5
CF
330
1E
100
AcDbEntity
  8
AESTHETICS
  6
Continuous
 62
     3
100
AcDbLine
 10
1.13514278632279
 20
2.40823819371821
 30
0.0
 11
0.723228
 21
2.408227
 31
0.0
  0
LINE
  5
D0
330
1E
100
AcDbEntity
  8
AESTHETICS
  6
Continuous
 62
     3
100
AcDbLine
 10
2.585636999999999
 20
1.834332
 30
0.0
 11
2.927734999999999
 21
2.175961999999999
 31
0.0
  0
ARC
  5
D1
330
1E
100
AcDbEntity
  8
AESTHETICS
  6
Continuous
 62
     3
100
AcDbCircle
 10
1.133777
 20
2.345253
 30
0.0
 40
0.063
100
AcDbArc
 50
270.0
 51
88.75777900000004
  0
ARC
  5
D2
330
1E
100
AcDbEntity
  8
AESTHETICS
  6
Continuous
 62
     3
100
AcDbCircle
 10
2.552513999999999
 20
1.867499999999999
 30
0.0
 40
0.046875
100
AcDbArc
 50
201.812893
 51
314.960811
  0
LINE
  5
D3
330
1E
100
AcDbEntity
  8
AESTHETICS
  6
Continuous
 62
     3
100
AcDbLine
 10
2.371688
 20
2.19315
 30
0.0
 11
2.508995
 21
1.850082
 31
0.0
  0
LINE
  5
D5
330
1E
100
AcDbEntity
  8
AESTHETICS
  6
Continuous
 62
     3
100
AcDbLine
 10
1.133777
 20
2.282252999999999
 30
0.0
 11
0.9505639999999999
 21
2.282151999999999
 31
0.0
  0
ARC
  5
D6
330
1E
100
AcDbEntity
  8
AESTHETICS
  6
Continuous
 62
     3
100
AcDbCircle
 10
2.110818
 20
2.597045999999999
 30
0.0
 40
0.342187
100
AcDbArc
 50
354.96558
 51
11.49346600000002
  0
LINE
  5
D7
330
1E
100
AcDbEntity
  8
AESTHETICS
  6
Continuous
 62
     3
100
AcDbLine
 10
0.9505639999999999
 20
2.282151999999999
 30
0.0
 11
0.9821850000000001
 21
2.21903
 31
0.0
  0
ARC
  5
D8
330
1E
100
AcDbEntity
  8
AESTHETICS
  6
Continuous
 62
     3
100
AcDbCircle
 10
2.420134
 20
2.193150999999999
 30
0.0
 40
0.048446
100
AcDbArc
 50
133.586347
 51
180.000839
  0
ARC
  5
D9
330
1E
100
AcDbEntity
  8
AESTHETICS
  6
Continuous
 62
     3
100
AcDbCircle
 10
0.9402749999999999
 20
2.198034999999999
 30
0.0
 40
0.046875
100
AcDbArc
 50
344.054716
 51
26.60890600000004
  0
ARC
  5
DA
330
1E
100
AcDbEntity
  8
AESTHETICS
  6
Continuous
 62
     3
100
AcDbCircle
 10
2.357099999999999
 20
2.640784999999999
 30
0.0
 40
0.119949
100
AcDbArc
 50
258.597937
 51
322.04934
  0
LINE
  5
DB
330
1E
100
AcDbEntity
  8
AESTHETICS
  6
Continuous
 62
     3
100
AcDbLine
 10
2.407217999999999
 20
2.251077999999999
 30
0.0
 11
2.386732999999999
 21
2.228241999999999
 31
0.0
  0
LINE
  5
DC
330
1E
100
AcDbEntity
  8
AESTHETICS
  6
Continuous
 62
     3
100
AcDbLine
 10
0.6629930000000001
 20
1.056912
 30
0.0
 11
0.9853469999999999
 21
2.185156999999999
 31
0.0
  0
ARC
  5
DD
330
1E
100
AcDbEntity
  8
AESTHETICS
  6
Continuous
 62
     3
100
AcDbCircle
 10
2.350049999999999
 20
2.399375
 30
0.0
 40
0.124944
100
AcDbArc
 50
97.664188
 51
175.919552
  0
LINE
  5
DE
330
1E
100
AcDbEntity
  8
AESTHETICS
  6
Continuous
 62
     3
100
AcDbLine
 10
0.6629930000000001
 20
1.056912
 30
0.0
 11
0.6077310000000001
 21
1.001078
 31
0.0
  0
LINE
  5
DF
330
1E
100
AcDbEntity
  8
AESTHETICS
  6
Continuous
 62
     3
100
AcDbLine
 10
2.225422
 20
2.408265
 30
0.0
 11
2.352715
 21
2.408259999999999
 31
0.0
  0
LINE
  5
E0
330
1E
100
AcDbEntity
  8
AESTHETICS
  6
Continuous
 62
     3
100
AcDbLine
 10
0.6077310000000001
 20
1.001078
 30
0.0
 11
0.576433
 21
0.9694559999999999
 31
0.0
  0
LINE
  5
E1
330
1E
100
AcDbEntity
  8
AESTHETICS
  6
Continuous
 62
     3
100
AcDbLine
 10
0.576433
 20
0.9694559999999999
 30
0.0
 11
0.886977
 21
0.9693280000000001
 31
0.0
  0
LINE
  5
E3
330
1E
100
AcDbEntity
  8
tool
  6
Continuous
 62
     7
100
AcDbLine
 10
0.886977
 20
0.9693280000000001
 30
0.0
 11
0.886983
 21
0.969353
 31
0.0
  0
LINE
  5
E4
330
1E
100
AcDbEntity
  8
AESTHETICS
  6
Continuous
 62
     3
100
AcDbLine
 10
2.461116
 20
2.282181
 30
0.0
 11
2.407217999999999
 21
2.251077999999999
 31
0.0
  0
ARC
  5
E5
330
1E
100
AcDbEntity
  8
AESTHETICS
  6
Continuous
 62
     3
100
AcDbCircle
 10
2.819106999999999
 20
1.495335
 30
0.0
 40
0.9576170000000001
100
AcDbArc
 50
326.122495
 51
13.69050899999998
  0
LINE
  5
E6
330
1E
100
AcDbEntity
  8
AESTHETICS
  6
Continuous
 62
     3
100
AcDbLine
 10
2.461116
 20
2.282181
 30
0.0
 11
2.466115977583835
 21
2.287695340256918
 31
0.0
  0
ARC
  5
E7
330
1E
100
AcDbEntity
  8
AESTHETICS
  6
Continuous
 62
     3
100
AcDbCircle
 10
2.491715
 20
2.345259999999999
 30
0.0
 40
0.063
100
AcDbArc
 50
90.0
 51
246.02527
  0
ARC
  5
E8
330
1E
100
AcDbEntity
  8
AESTHETICS
  6
Continuous
 62
     3
100
AcDbCircle
 10
2.352715
 20
2.345259999999999
 30
0.0
 40
0.063
100
AcDbArc
 50
270.0
 51
90.0
  0
LINE
  5
EB
330
1E
100
AcDbEntity
  8
AESTHETICS
  6
Continuous
 62
     3
100
AcDbLine
 10
0.886983
 20
0.969353
 30
0.0
 11
1.131662
 21
0.9693329999999999
 31
0.0
  0
LINE
  5
EC
330
1E
100
AcDbEntity
  8
AESTHETICS
  6
Continuous
 62
     3
100
AcDbLine
 10
1.133777
 20
0.9687099999999999
 30
0.0
 11
1.131662
 21
0.9693329999999999
 31
0.0
  0
ARC
  5
ED
330
1E
100
AcDbEntity
  8
AESTHETICS
  6
Continuous
 62
     3
100
AcDbCircle
 10
3.010914
 20
3.029598
 30
0.0
 40
0.6916140000000001
100
AcDbArc
 50
137.271007
 51
178.543008
  0
LINE
  5
EE
330
1E
100
AcDbEntity
  8
AESTHETICS
  6
Continuous
 62
     3
100
AcDbLine
 10
2.148347
 20
2.282122999999999
 30
0.0
 11
2.352715
 21
2.282259999999999
 31
0.0
  0
LINE
  5
EF
330
1E
100
AcDbEntity
  8
AESTHETICS
  6
Continuous
 62
     3
100
AcDbLine
 10
2.148347
 20
2.282122999999999
 30
0.0
 11
2.210167999999999
 21
2.251293999999999
 31
0.0
  0
ARC
  5
F0
330
1E
100
AcDbEntity
  8
AESTHETICS
  6
Continuous
 62
     3
100
AcDbCircle
 10
1.133777
 20
0.90571
 30
0.0
 40
0.063
100
AcDbArc
 50
270.000003
 51
90.0
  0
LINE
  5
F1
330
1E
100
AcDbEntity
  8
AESTHETICS
  6
Continuous
 62
     3
100
AcDbLine
 10
1.321596999999999
 20
1.729154
 30
0.0
 11
1.068921
 21
1.729154
 31
0.0
  0
ARC
  5
F2
330
1E
100
AcDbEntity
  8
AESTHETICS
  6
Continuous
 62
     3
100
AcDbCircle
 10
1.068921
 20
1.776029
 30
0.0
 40
0.046875
100
AcDbArc
 50
164.0547179999999
 51
270.0
  0
ARC
  5
F3
330
1E
100
AcDbEntity
  8
AESTHETICS
  6
Continuous
 62
     3
100
AcDbCircle
 10
2.189249999999999
 20
2.209344999999999
 30
0.0
 40
0.046875
100
AcDbArc
 50
20.719147
 51
63.495517
  0
LINE
  5
F4
330
1E
100
AcDbEntity
  8
AESTHETICS
  6
Continuous
 62
     3
100
AcDbLine
 10
0.8934799999999999
 20
1.115197999999999
 30
0.0
 11
1.177651
 21
1.115042
 31
0.0
  0
ARC
  5
F5
330
1E
100
AcDbEntity
  8
AESTHETICS
  6
Continuous
 62
     3
100
AcDbCircle
 10
0.893506
 20
1.162072999999999
 30
0.0
 40
0.046875
100
AcDbArc
 50
164.054716
 51
269.968598
  0
LINE
  5
F6
330
1E
100
AcDbEntity
  8
AESTHETICS
  6
Continuous
 62
     3
100
AcDbLine
 10
2.491715
 20
2.408259999999999
 30
0.0
 11
2.645110999999999
 21
2.408275999999999
 31
0.0
  0
ARC
  5
F7
330
1E
100
AcDbEntity
  8
AESTHETICS
  6
Continuous
 62
     3
100
AcDbCircle
 10
2.192363
 20
2.728387
 30
0.0
 40
0.554483
100
AcDbArc
 50
324.738134
 51
353.484828
  0
ARC
  5
F8
330
1E
100
AcDbEntity
  8
AESTHETICS
  6
Continuous
 62
     3
100
AcDbCircle
 10
3.315872
 20
2.897015999999999
 30
0.0
 40
0.6176500000000001
100
AcDbArc
 50
188.369157
 51
202.016876
  0
ARC
  5
F9
330
1E
100
AcDbEntity
  8
AESTHETICS
  6
Continuous
 62
     3
100
AcDbCircle
 10
2.836854
 20
2.866258
 30
0.0
 40
0.144693
100
AcDbArc
 50
123.289412
 51
204.125456
  0
LINE
  5
FA
330
1E
100
AcDbEntity
  8
AESTHETICS
  6
Continuous
 62
     3
100
AcDbLine
 10
2.233093
 20
2.225929
 30
0.0
 11
2.446935999999999
 21
1.660581999999999
 31
0.0
  0
LINE
  5
FB
330
1E
100
AcDbEntity
  8
AESTHETICS
  6
Continuous
 62
     3
100
AcDbLine
 10
0.0
 20
0.8427100000000001
 30
0.0
 11
1.133777003298672
 21
0.8427100000000001
 31
0.0
  0
ARC
  5
FC
330
1E
100
AcDbEntity
  8
0
  6
Continuous
 62
     7
100
AcDbCircle
 10
0.5487440000000001
 20
0.5498529999999999
 30
0.0
 40
0.099248
100
AcDbArc
 50
357.6083
 51
140.989137
  0
ARC
  5
FD
330
1E
100
AcDbEntity
  8
0
  6
Continuous
 62
     7
100
AcDbCircle
 10
0.488227
 20
0.406265
 30
0.0
 40
0.112872
100
AcDbArc
 50
174.46684
 51
345.361163
  0
ARC
  5
FE
330
1E
100
AcDbEntity
  8
0
  6
Continuous
 62
     7
100
AcDbCircle
 10
0.631825
 20
0.412667
 30
0.0
 40
0.255984
100
AcDbArc
 50
128.742302
 51
178.996875
  0
LINE
  5
FF
330
1E
100
AcDbEntity
  8
0
  6
Continuous
 62
     7
100
AcDbLine
 10
1.098973999999999
 20
0.295075
 30
0.0
 11
1.197536
 21
0.6450020000000001
 31
0.0
  0
LINE
  5
100
330
1E
100
AcDbEntity
  8
0
  6
Continuous
 62
     7
100
AcDbLine
 10
1.197536
 20
0.6450020000000001
 30
0.0
 11
1.234621389246427
 21
0.297128
 31
0.0
  0
LINE
  5
101
330
1E
100
AcDbEntity
  8
0
  6
Continuous
 62
     7
100
AcDbLine
 10
1.234621389246427
 20
0.297128
 30
0.0
 11
1.478439079966892
 21
0.6427228593650898
 31
0.0
  0
LINE
  5
102
330
1E
100
AcDbEntity
  8
0
  6
Continuous
 62
     7
100
AcDbLine
 10
1.478439079966892
 20
0.6427228593650898
 30
0.0
 11
1.379877079966892
 21
0.2927958593650897
 31
0.0
  0
LINE
  5
103
330
1E
100
AcDbEntity
  8
0
  6
Continuous
 62
     7
100
AcDbLine
 10
1.898033999999999
 20
0.294858
 30
0.0
 11
1.997224
 21
0.6446550000000001
 31
0.0
  0
LINE
  5
104
330
1E
100
AcDbEntity
  8
0
  6
Continuous
 62
     7
100
AcDbLine
 10
1.997224
 20
0.6446550000000001
 30
0.0
 11
2.121366999999999
 21
0.6446550000000001
 31
0.0
  0
LINE
  5
105
330
1E
100
AcDbEntity
  8
tool
  6
Continuous
 62
     7
100
AcDbLine
 10
1.998739
 20
0.478174
 30
0.0
 11
1.998711
 21
0.478074
 31
0.0
  0
LINE
  5
106
330
1E
100
AcDbEntity
  8
0
  6
Continuous
 62
     7
100
AcDbLine
 10
1.998711
 20
0.478074
 30
0.0
 11
2.047877999999999
 21
0.478074
 31
0.0
  0
LINE
  5
107
330
1E
100
AcDbEntity
  8
0
  6
Continuous
 62
     7
100
AcDbLine
 10
2.047877999999999
 20
0.478074
 30
0.0
 11
2.080827999999999
 21
0.461615
 31
0.0
  0
LINE
  5
108
330
1E
100
AcDbEntity
  8
0
  6
Continuous
 62
     7
100
AcDbLine
 10
2.080827999999999
 20
0.461615
 30
0.0
 11
2.097558
 21
0.444945
 31
0.0
  0
LINE
  5
109
330
1E
100
AcDbEntity
  8
0
  6
Continuous
 62
     7
100
AcDbLine
 10
2.097558
 20
0.444945
 30
0.0
 11
2.113639
 21
0.311564
 31
0.0
  0
LINE
  5
10A
330
1E
100
AcDbEntity
  8
0
  6
Continuous
 62
     7
100
AcDbLine
 10
2.113639
 20
0.311564
 30
0.0
 11
2.130550999999999
 21
0.295165
 31
0.0
  0
LINE
  5
10B
330
1E
100
AcDbEntity
  8
0
  6
Continuous
 62
     7
100
AcDbLine
 10
2.130550999999999
 20
0.295165
 30
0.0
 11
2.164375
 21
0.294912
 31
0.0
  0
LINE
  5
10C
330
1E
100
AcDbEntity
  8
0
  6
Continuous
 62
     7
100
AcDbLine
 10
2.164375
 20
0.294912
 30
0.0
 11
2.180528999999999
 21
0.32771
 31
0.0
  0
ARC
  5
10D
330
1E
100
AcDbEntity
  8
0
  6
Continuous
 62
     7
100
AcDbCircle
 10
2.104022
 20
0.562283
 30
0.0
 40
0.084179
100
AcDbArc
 50
272.337605
 51
78.10869299999997
  0
LINE
  5
10E
330
1E
100
AcDbEntity
  8
0
  6
Continuous
 62
     7
100
AcDbLine
 10
1.998739
 20
0.478174
 30
0.0
 11
2.107454999999999
 21
0.478174
 31
0.0
  0
ARC
  5
10F
330
1E
100
AcDbEntity
  8
tool
  6
Continuous
 62
     7
100
AcDbCircle
 10
5.395777999999999
 20
1.105858
 30
0.0
 40
4.448287999999999
100
AcDbArc
 50
153.82968
 51
161.570249
  0
ARC
  5
110
330
1E
100
AcDbEntity
  8
tool
  6
Continuous
 62
     7
100
AcDbCircle
 10
0.921179
 20
2.570113
 30
0.0
 40
0.260974
100
AcDbArc
 50
309.56729
 51
347.166991
  0
ARC
  5
111
330
1E
100
AcDbEntity
  8
tool
  6
Continuous
 62
     7
100
AcDbCircle
 10
3.010914
 20
3.029598
 30
0.0
 40
0.7384890000000001
100
AcDbArc
 50
137.271007
 51
178.543008
  0
ARC
  5
112
330
1E
100
AcDbEntity
  8
tool
  6
Continuous
 62
     7
100
AcDbCircle
 10
2.703781
 20
1.489024999999999
 30
0.0
 40
1.269508
100
AcDbArc
 50
331.06098
 51
40.33383499999998
  0
ARC
  5
113
330
1E
100
AcDbEntity
  8
tool
  6
Continuous
 62
     7
100
AcDbCircle
 10
2.819106999999999
 20
1.495335
 30
0.0
 40
0.9107420000000001
100
AcDbArc
 50
326.122495
 51
13.69050899999998
  0
LINE
  5
114
330
1E
100
AcDbEntity
  8
tool
  6
Continuous
 62
     7
100
AcDbLine
 10
0.893506
 20
1.162072999999999
 30
0.0
 11
1.000456
 21
1.536399999999999
 31
0.0
  0
LINE
  5
115
330
1E
100
AcDbEntity
  8
tool
  6
Continuous
 62
     7
100
AcDbLine
 10
1.000456
 20
1.536399999999999
 30
0.0
 11
1.345169999999999
 21
1.536399999999999
 31
0.0
  0
ARC
  5
116
330
1E
100
AcDbEntity
  8
tool
  6
Continuous
 62
     7
100
AcDbCircle
 10
1.314586
 20
1.397479
 30
0.0
 40
0.142248
100
AcDbArc
 50
349.637901
 51
77.58432699999999
  0
ARC
  5
117
330
1E
100
AcDbEntity
  8
tool
  6
Continuous
 62
     7
100
AcDbCircle
 10
1.192712
 20
1.429654999999999
 30
0.0
 40
0.2680989999999999
100
AcDbArc
 50
267.259198
 51
347.5579240000001
  0
ARC
  5
118
330
1E
100
AcDbEntity
  8
tool
  6
Continuous
 62
     7
100
AcDbCircle
 10
1.177651
 20
1.115042
 30
0.0
 40
0.046875
100
AcDbArc
 50
87.25919799999999
 51
89.96859800000001
  0
LINE
  5
119
330
1E
100
AcDbEntity
  8
tool
  6
Continuous
 62
     7
100
AcDbLine
 10
1.177677
 20
1.161917
 30
0.0
 11
0.893506
 21
1.162072999999999
 31
0.0
  0
LINE
  5
11A
330
1E
100
AcDbEntity
  8
tool
  6
Continuous
 62
     7
100
AcDbLine
 10
1.068921
 20
1.776029
 30
0.0
 11
1.158486
 21
2.089509
 31
0.0
  0
LINE
  5
11B
330
1E
100
AcDbEntity
  8
tool
  6
Continuous
 62
     7
100
AcDbLine
 10
1.158486
 20
2.089509
 30
0.0
 11
1.519044
 21
2.089701999999999
 31
0.0
  0
ARC
  5
11C
330
1E
100
AcDbEntity
  8
tool
  6
Continuous
 62
     7
100
AcDbCircle
 10
1.519019
 20
2.136576999999999
 30
0.0
 40
0.046875
100
AcDbArc
 50
270.030675
 51
271.905621
  0
ARC
  5
11D
330
1E
100
AcDbEntity
  8
tool
  6
Continuous
 62
     7
100
AcDbCircle
 10
1.522283
 20
2.038448999999999
 30
0.0
 40
0.051308
100
AcDbArc
 50
5.678927
 51
91.90562099999999
  0
ARC
  5
11E
330
1E
100
AcDbEntity
  8
tool
  6
Continuous
 62
     7
100
AcDbCircle
 10
1.619984999999999
 20
2.048163999999999
 30
0.0
 40
0.046875
100
AcDbArc
 50
185.678927
 51
186.003823
  0
ARC
  5
11F
330
1E
100
AcDbEntity
  8
tool
  6
Continuous
 62
     7
100
AcDbCircle
 10
1.332578
 20
2.017936999999999
 30
0.0
 40
0.242117
100
AcDbArc
 50
267.822318
 51
6.003822999999988
  0
ARC
  5
120
330
1E
100
AcDbEntity
  8
tool
  6
Continuous
 62
     7
100
AcDbCircle
 10
1.321596999999999
 20
1.729154
 30
0.0
 40
0.046875
100
AcDbArc
 50
87.82231800000001
 51
90.0
  0
LINE
  5
121
330
1E
100
AcDbEntity
  8
tool
  6
Continuous
 62
     7
100
AcDbLine
 10
1.321596999999999
 20
1.776029
 30
0.0
 11
1.068921
 21
1.776029
 31
0.0
  0
LINE
  5
122
330
1E
100
AcDbEntity
  8
tool
  6
Continuous
 62
     7
100
AcDbLine
 10
2.397708999999999
 20
1.658229999999999
 30
0.0
 11
2.239688
 21
1.078587
 31
0.0
  0
LINE
  5
123
330
1E
100
AcDbEntity
  8
tool
  6
Continuous
 62
     7
100
AcDbLine
 10
2.239688
 20
1.078587
 30
0.0
 11
2.212648
 21
1.03961
 31
0.0
  0
LINE
  5
124
330
1E
100
AcDbEntity
  8
tool
  6
Continuous
 62
     7
100
AcDbLine
 10
2.212648
 20
1.03961
 30
0.0
 11
2.133796999999999
 21
1.013231999999999
 31
0.0
  0
ARC
  5
125
330
1E
100
AcDbEntity
  8
tool
  6
Continuous
 62
     7
100
AcDbCircle
 10
2.148668
 20
0.9687789999999999
 30
0.0
 40
0.046875
100
AcDbArc
 50
108.496043
 51
269.987425
  0
LINE
  5
126
330
1E
100
AcDbEntity
  8
tool
  6
Continuous
 62
     7
100
AcDbLine
 10
2.148657
 20
0.9219039999999999
 30
0.0
 11
2.356247
 21
0.9218579999999999
 31
0.0
  0
ARC
  5
127
330
1E
100
AcDbEntity
  8
tool
  6
Continuous
 62
     7
100
AcDbCircle
 10
2.357715
 20
0.96871
 30
0.0
 40
0.046875
100
AcDbArc
 50
268.205536
 51
270.0
  0
ARC
  5
128
330
1E
100
AcDbEntity
  8
tool
  6
Continuous
 62
     7
100
AcDbCircle
 10
2.357715
 20
0.90571
 30
0.0
 40
0.016125
100
AcDbArc
 50
270.000007
 51
90.0
  0
LINE
  5
129
330
1E
100
AcDbEntity
  8
tool
  6
Continuous
 62
     7
100
AcDbLine
 10
2.357715
 20
0.8895850000000001
 30
0.0
 11
1.267777
 21
0.8895850000000001
 31
0.0
  0
ARC
  5
12A
330
1E
100
AcDbEntity
  8
tool
  6
Continuous
 62
     7
100
AcDbCircle
 10
1.267777
 20
0.90571
 30
0.0
 40
0.016125
100
AcDbArc
 50
90.0
 51
270.000003
  0
ARC
  5
12B
330
1E
100
AcDbEntity
  8
tool
  6
Continuous
 62
     7
100
AcDbCircle
 10
1.267777
 20
0.96871
 30
0.0
 40
0.046875
100
AcDbArc
 50
270.0
 51
302.828828
  0
LINE
  5
12C
330
1E
100
AcDbEntity
  8
tool
  6
Continuous
 62
     7
100
AcDbLine
 10
1.293188999999999
 20
0.929321
 30
0.0
 11
1.299247999999999
 21
0.9332309999999999
 31
0.0
  0
ARC
  5
12D
330
1E
100
AcDbEntity
  8
tool
  6
Continuous
 62
     7
100
AcDbCircle
 10
1.192712
 20
1.429654999999999
 30
0.0
 40
0.507728
100
AcDbArc
 50
282.112351
 51
347.522455
  0
ARC
  5
12E
330
1E
100
AcDbEntity
  8
tool
  6
Continuous
 62
     7
100
AcDbCircle
 10
1.397189
 20
1.403801
 30
0.0
 40
0.303087
100
AcDbArc
 50
343.940716
 51
51.66745899999996
  0
ARC
  5
12F
330
1E
100
AcDbEntity
  8
tool
  6
Continuous
 62
     7
100
AcDbCircle
 10
1.429881999999999
 20
1.997547999999999
 30
0.0
 40
0.388393
100
AcDbArc
 50
293.567113
 51
10.66436199999997
  0
ARC
  5
130
330
1E
100
AcDbEntity
  8
tool
  6
Continuous
 62
     7
100
AcDbCircle
 10
1.522283
 20
2.038448999999999
 30
0.0
 40
0.290937
100
AcDbArc
 50
6.111304000000001
 51
91.747268
  0
LINE
  5
131
330
1E
100
AcDbEntity
  8
tool
  6
Continuous
 62
     7
100
AcDbLine
 10
1.513412999999999
 20
2.329250999999999
 30
0.0
 11
1.269571
 21
2.329153999999999
 31
0.0
  0
ARC
  5
132
330
1E
100
AcDbEntity
  8
tool
  6
Continuous
 62
     7
100
AcDbCircle
 10
1.269589999999999
 20
2.282278999999999
 30
0.0
 40
0.046875
100
AcDbArc
 50
90.02273500000001
 51
91.649338
  0
ARC
  5
133
330
1E
100
AcDbEntity
  8
tool
  6
Continuous
 62
     7
100
AcDbCircle
 10
1.267777
 20
2.345253
 30
0.0
 40
0.016125
100
AcDbArc
 50
88.90244799999999
 51
271.649338
  0
ARC
  5
134
330
1E
100
AcDbEntity
  8
tool
  6
Continuous
 62
     7
100
AcDbCircle
 10
1.268982999999999
 20
2.408240999999999
 30
0.0
 40
0.046875
100
AcDbArc
 50
268.902448
 51
270.001444
  0
LINE
  5
135
330
1E
100
AcDbEntity
  8
tool
  6
Continuous
 62
     7
100
AcDbLine
 10
1.268985
 20
2.361365999999999
 30
0.0
 11
1.308701
 21
2.361366999999999
 31
0.0
  0
ARC
  5
136
330
1E
100
AcDbEntity
  8
tool
  6
Continuous
 62
     7
100
AcDbCircle
 10
1.308699999999999
 20
2.408241999999999
 30
0.0
 40
0.046875
100
AcDbArc
 50
270.001444
 51
348.432607
  0
ARC
  5
137
330
1E
100
AcDbEntity
  8
tool
  6
Continuous
 62
     7
100
AcDbCircle
 10
-1.193610999999999
 20
2.920408999999999
 30
0.0
 40
2.601062999999999
100
AcDbArc
 50
348.432607
 51
3.243937000000052
  0
ARC
  5
138
330
1E
100
AcDbEntity
  8
tool
  6
Continuous
 62
     7
100
AcDbCircle
 10
1.582405999999999
 20
5.099923
 30
0.0
 40
2.040205999999999
100
AcDbArc
 50
264.963185
 51
290.272268
  0
ARC
  5
139
330
1E
100
AcDbEntity
  8
tool
  6
Continuous
 62
     7
100
AcDbCircle
 10
3.010914
 20
3.029598
 30
0.0
 40
0.7383890000000001
100
AcDbArc
 50
167.763726
 51
178.543008
  0
ARC
  5
13A
330
1E
100
AcDbEntity
  8
tool
  6
Continuous
 62
     7
100
AcDbCircle
 10
2.319622999999999
 20
3.047179999999999
 30
0.0
 40
0.046875
100
AcDbArc
 50
178.543008
 51
189.491921
  0
ARC
  5
13B
330
1E
100
AcDbEntity
  8
tool
  6
Continuous
 62
     7
100
AcDbCircle
 10
3.464191999999999
 20
3.23855
 30
0.0
 40
1.207332
100
AcDbArc
 50
189.491921
 51
199.642455
  0
ARC
  5
13C
330
1E
100
AcDbEntity
  8
tool
  6
Continuous
 62
     7
100
AcDbCircle
 10
2.371264
 20
2.848463
 30
0.0
 40
0.046875
100
AcDbArc
 50
199.642455
 51
206.519029
  0
ARC
  5
13D
330
1E
100
AcDbEntity
  8
tool
  6
Continuous
 62
     7
100
AcDbCircle
 10
1.187815999999999
 20
2.257925999999999
 30
0.0
 40
1.275729
100
AcDbArc
 50
18.057847
 51
26.519029
  0
ARC
  5
13E
330
1E
100
AcDbEntity
  8
tool
  6
Continuous
 62
     7
100
AcDbCircle
 10
2.110818
 20
2.597045999999999
 30
0.0
 40
0.295312
100
AcDbArc
 50
357.939509
 51
10.99576199999998
  0
ARC
  5
13F
330
1E
100
AcDbEntity
  8
tool
  6
Continuous
 62
     7
100
AcDbCircle
 10
2.357099999999999
 20
2.640784999999999
 30
0.0
 40
0.073074
100
AcDbArc
 50
258.597937
 51
311.939674
  0
ARC
  5
140
330
1E
100
AcDbEntity
  8
tool
  6
Continuous
 62
     7
100
AcDbCircle
 10
2.333387
 20
2.523203
 30
0.0
 40
0.046875
100
AcDbArc
 50
78.597937
 51
97.664188
  0
ARC
  5
141
330
1E
100
AcDbEntity
  8
tool
  6
Continuous
 62
     7
100
AcDbCircle
 10
2.350049999999999
 20
2.399375
 30
0.0
 40
0.171819
100
AcDbArc
 50
97.664188
 51
175.919552
  0
ARC
  5
142
330
1E
100
AcDbEntity
  8
tool
  6
Continuous
 62
     7
100
AcDbCircle
 10
2.225422
 20
2.408265
 30
0.0
 40
0.046875
100
AcDbArc
 50
175.919552
 51
270.001444
  0
LINE
  5
143
330
1E
100
AcDbEntity
  8
tool
  6
Continuous
 62
     7
100
AcDbLine
 10
2.225424
 20
2.36139
 30
0.0
 11
2.357692999999999
 21
2.361393999999999
 31
0.0
  0
ARC
  5
144
330
1E
100
AcDbEntity
  8
tool
  6
Continuous
 62
     7
100
AcDbCircle
 10
2.357715
 20
2.345259999999999
 30
0.0
 40
0.016125
100
AcDbArc
 50
270.0
 51
90.0
  0
ARC
  5
145
330
1E
100
AcDbEntity
  8
tool
  6
Continuous
 62
     7
100
AcDbCircle
 10
2.357715
 20
2.282259999999999
 30
0.0
 40
0.046875
100
AcDbArc
 50
90.0
 51
93.712485
  0
LINE
  5
146
330
1E
100
AcDbEntity
  8
tool
  6
Continuous
 62
     7
100
AcDbLine
 10
2.35468
 20
2.329035999999999
 30
0.0
 11
2.148338
 21
2.328997999999999
 31
0.0
  0
ARC
  5
147
330
1E
100
AcDbEntity
  8
tool
  6
Continuous
 62
     7
100
AcDbCircle
 10
2.148347
 20
2.282122999999999
 30
0.0
 40
0.046875
100
AcDbArc
 50
90.010784
 51
243.495517
  0
LINE
  5
148
330
1E
100
AcDbEntity
  8
tool
  6
Continuous
 62
     7
100
AcDbLine
 10
2.127428
 20
2.240174
 30
0.0
 11
2.189249999999999
 21
2.209344999999999
 31
0.0
  0
LINE
  5
149
330
1E
100
AcDbEntity
  8
tool
  6
Continuous
 62
     7
100
AcDbLine
 10
2.189249999999999
 20
2.209344999999999
 30
0.0
 11
2.397708999999999
 21
1.658229999999999
 31
0.0
  0
ARC
  5
14A
330
1E
100
AcDbEntity
  8
tool
  6
Continuous
 62
     7
100
AcDbCircle
 10
2.257795999999999
 20
3.639776
 30
0.0
 40
0.8687540000000002
100
AcDbArc
 50
307.43959
 51
325.306818
  0
ARC
  5
14B
330
1E
100
AcDbEntity
  8
tool
  6
Continuous
 62
     7
100
AcDbCircle
 10
4.221753999999999
 20
3.154681
 30
0.0
 40
1.249692999999999
100
AcDbArc
 50
180.430216
 51
218.355584
  0
ARC
  5
14C
330
1E
100
AcDbEntity
  8
tool
  6
Continuous
 62
     7
100
AcDbCircle
 10
3.278533999999999
 20
2.408284
 30
0.0
 40
0.046875
100
AcDbArc
 50
218.355584
 51
270.0
  0
LINE
  5
14D
330
1E
100
AcDbEntity
  8
tool
  6
Continuous
 62
     7
100
AcDbLine
 10
3.278533999999999
 20
2.361409
 30
0.0
 11
3.350214999999999
 21
2.361409
 31
0.0
  0
ARC
  5
14E
330
1E
100
AcDbEntity
  8
tool
  6
Continuous
 62
     7
100
AcDbCircle
 10
3.350214999999999
 20
2.345283999999999
 30
0.0
 40
0.016125
100
AcDbArc
 50
270.0
 51
90.0
  0
ARC
  5
14F
330
1E
100
AcDbEntity
  8
tool
  6
Continuous
 62
     7
100
AcDbCircle
 10
3.350214999999999
 20
2.282284
 30
0.0
 40
0.046875
100
AcDbArc
 50
90.0
 51
144.173245
  0
ARC
  5
150
330
1E
100
AcDbEntity
  8
tool
  6
Continuous
 62
     7
100
AcDbCircle
 10
3.274322
 20
2.282121
 30
0.0
 40
0.046875
100
AcDbArc
 50
36.073328
 51
89.985791
  0
LINE
  5
151
330
1E
100
AcDbEntity
  8
tool
  6
Continuous
 62
     7
100
AcDbLine
 10
3.274334
 20
2.328996
 30
0.0
 11
3.034111
 21
2.329056
 31
0.0
  0
LINE
  5
152
330
1E
100
AcDbEntity
  8
tool
  6
Continuous
 62
     7
100
AcDbLine
 10
3.034099
 20
2.329056
 30
0.0
 11
2.853057
 21
2.329056
 31
0.0
  0
ARC
  5
153
330
1E
100
AcDbEntity
  8
tool
  6
Continuous
 62
     7
100
AcDbCircle
 10
2.853057
 20
2.282181
 30
0.0
 40
0.046875
100
AcDbArc
 50
90.0
 51
243.533927
  0
LINE
  5
154
330
1E
100
AcDbEntity
  8
tool
  6
Continuous
 62
     7
100
AcDbLine
 10
2.832165999999999
 20
2.240218
 30
0.0
 11
2.894612
 21
2.20913
 31
0.0
  0
LINE
  5
155
330
1E
100
AcDbEntity
  8
tool
  6
Continuous
 62
     7
100
AcDbLine
 10
2.894612
 20
2.20913
 30
0.0
 11
2.552513999999999
 21
1.867499999999999
 31
0.0
  0
LINE
  5
156
330
1E
100
AcDbEntity
  8
tool
  6
Continuous
 62
     7
100
AcDbLine
 10
2.552513999999999
 20
1.867499999999999
 30
0.0
 11
2.420954999999999
 21
2.196208
 31
0.0
  0
ARC
  5
157
330
1E
100
AcDbEntity
  8
tool
  6
Continuous
 62
     7
100
AcDbCircle
 10
2.386732999999999
 20
2.228241999999999
 30
0.0
 40
0.046875
100
AcDbArc
 50
316.890881
 51
318.108029
  0
LINE
  5
158
330
1E
100
AcDbEntity
  8
tool
  6
Continuous
 62
     7
100
AcDbLine
 10
2.421626999999999
 20
2.196941999999999
 30
0.0
 11
2.43712
 21
2.214214
 31
0.0
  0
LINE
  5
159
330
1E
100
AcDbEntity
  8
tool
  6
Continuous
 62
     7
100
AcDbLine
 10
2.43712
 20
2.214214
 30
0.0
 11
2.484545
 21
2.241582
 31
0.0
  0
ARC
  5
15A
330
1E
100
AcDbEntity
  8
tool
  6
Continuous
 62
     7
100
AcDbCircle
 10
2.461116
 20
2.282181
 30
0.0
 40
0.046875
100
AcDbArc
 50
299.987983
 51
0.0
  0
LINE
  5
15B
330
1E
100
AcDbEntity
  8
tool
  6
Continuous
 62
     7
100
AcDbLine
 10
2.507991
 20
2.282181
 30
0.0
 11
2.507991
 21
2.287695
 31
0.0
  0
ARC
  5
15C
330
1E
100
AcDbEntity
  8
tool
  6
Continuous
 62
     7
100
AcDbCircle
 10
2.461116
 20
2.287695
 30
0.0
 40
0.046875
100
AcDbArc
 50
0.0
 51
66.02526999999999
  0
ARC
  5
15D
330
1E
100
AcDbEntity
  8
tool
  6
Continuous
 62
     7
100
AcDbCircle
 10
2.486715
 20
2.345259999999999
 30
0.0
 40
0.016125
100
AcDbArc
 50
90.0
 51
246.02527
  0
ARC
  5
15E
330
1E
100
AcDbEntity
  8
tool
  6
Continuous
 62
     7
100
AcDbCircle
 10
2.486715
 20
2.408259999999999
 30
0.0
 40
0.046875
100
AcDbArc
 50
270.0
 51
271.299352
  0
LINE
  5
15F
330
1E
100
AcDbEntity
  8
tool
  6
Continuous
 62
     7
100
AcDbLine
 10
2.487778
 20
2.361397
 30
0.0
 11
2.645111999999999
 21
2.361400999999999
 31
0.0
  0
ARC
  5
160
330
1E
100
AcDbEntity
  8
tool
  6
Continuous
 62
     7
100
AcDbCircle
 10
2.645110999999999
 20
2.408275999999999
 30
0.0
 40
0.046875
100
AcDbArc
 50
270.001444
 51
324.738134
  0
ARC
  5
161
330
1E
100
AcDbEntity
  8
tool
  6
Continuous
 62
     7
100
AcDbCircle
 10
2.192363
 20
2.728387
 30
0.0
 40
0.601358
100
AcDbArc
 50
324.738134
 51
353.484828
  0
ARC
  5
162
330
1E
100
AcDbEntity
  8
tool
  6
Continuous
 62
     7
100
AcDbCircle
 10
2.743265
 20
2.665472
 30
0.0
 40
0.046875
100
AcDbArc
 50
353.484828
 51
22.01687600000001
  0
ARC
  5
163
330
1E
100
AcDbEntity
  8
tool
  6
Continuous
 62
     7
100
AcDbCircle
 10
3.315872
 20
2.897015999999999
 30
0.0
 40
0.5707750000000001
100
AcDbArc
 50
188.369157
 51
202.016876
  0
ARC
  5
164
330
1E
100
AcDbEntity
  8
tool
  6
Continuous
 62
     7
100
AcDbCircle
 10
2.7048
 20
2.807116999999999
 30
0.0
 40
0.046875
100
AcDbArc
 50
8.369157000000001
 51
24.125456
  0
ARC
  5
165
330
1E
100
AcDbEntity
  8
tool
  6
Continuous
 62
     7
100
AcDbCircle
 10
2.836854
 20
2.866258
 30
0.0
 40
0.097818
100
AcDbArc
 50
123.289412
 51
204.125456
  0
ARC
  5
166
330
1E
100
AcDbEntity
  8
tool
  6
Continuous
 62
     7
100
AcDbCircle
 10
2.757436999999999
 20
2.987209
 30
0.0
 40
0.046875
100
AcDbArc
 50
303.289412
 51
307.43959
  0
ARC
  5
167
330
1E
100
AcDbEntity
  8
tool
  6
Continuous
 62
     7
100
AcDbCircle
 10
3.274322
 20
2.282121
 30
0.0
 40
0.046875
100
AcDbArc
 50
296.466073
 51
324.173245
  0
ARC
  5
168
330
1E
100
AcDbEntity
  8
tool
  6
Continuous
 62
     7
100
AcDbCircle
 10
3.350214999999999
 20
2.282284
 30
0.0
 40
0.046875
100
AcDbArc
 50
216.073328
 51
243.206046
  0
ARC
  5
169
330
1E
100
AcDbEntity
  8
tool
  6
Continuous
 62
     7
100
AcDbCircle
 10
3.017031999999999
 20
1.622520999999999
 30
0.0
 40
0.692245
100
AcDbArc
 50
8.480238999999999
 51
63.206046
  0
LINE
  5
16A
330
1E
100
AcDbEntity
  8
tool
  6
Continuous
 62
     7
100
AcDbLine
 10
3.701708999999999
 20
1.724604999999999
 30
0.0
 11
3.673851999999999
 21
1.619911
 31
0.0
  0
LINE
  5
16B
330
1E
100
AcDbEntity
  8
tool
  6
Continuous
 62
     7
100
AcDbLine
 10
3.673851999999999
 20
1.619911
 30
0.0
 11
2.640006
 21
1.619911
 31
0.0
  0
LINE
  5
16C
330
1E
100
AcDbEntity
  8
tool
  6
Continuous
 62
     7
100
AcDbLine
 10
2.640006
 20
1.619911
 30
0.0
 11
2.642813
 21
1.630184
 31
0.0
  0
LINE
  5
16D
330
1E
100
AcDbEntity
  8
tool
  6
Continuous
 62
     7
100
AcDbLine
 10
2.642813
 20
1.630184
 30
0.0
 11
3.177433999999999
 21
2.181522999999999
 31
0.0
  0
LINE
  5
16E
330
1E
100
AcDbEntity
  8
tool
  6
Continuous
 62
     7
100
AcDbLine
 10
3.177433999999999
 20
2.181522999999999
 30
0.0
 11
3.295212999999999
 21
2.240159
 31
0.0
  0
LINE
  5
16F
330
1E
100
AcDbEntity
  8
AESTHETICS
  6
Continuous
 62
     3
100
AcDbLine
 10
0.0
 20
0.8427100000000001
 30
0.0
 11
0.0
 21
0.0
 31
0.0
  0
LINE
  5
170
330
1E
100
AcDbEntity
  8
AESTHETICS
  6
Continuous
 62
     3
100
AcDbLine
 10
0.0
 20
0.0
 30
0.0
 11
4.990965
 21
0.0
 31
0.0
  0
LINE
  5
171
330
1E
100
AcDbEntity
  8
tool
  6
Continuous
 62
     7
100
AcDbLine
 10
5.03784
 20
0.0
 30
0.0
 11
5.03784
 21
0.460648
 31
0.0
  0
ARC
  5
172
330
1E
100
AcDbEntity
  8
tool
  6
Continuous
 62
     7
100
AcDbCircle
 10
4.990965
 20
0.460648
 30
0.0
 40
0.046875
100
AcDbArc
 50
0.0
 51
90.0
  0
LINE
  5
173
330
1E
100
AcDbEntity
  8
tool
  6
Continuous
 62
     7
100
AcDbLine
 10
4.990965
 20
0.507523
 30
0.0
 11
2.939277
 21
0.507523
 31
0.0
  0
LINE
  5
174
330
1E
100
AcDbEntity
  8
tool
  6
Continuous
 62
     7
100
AcDbLine
 10
2.939277
 20
0.507523
 30
0.0
 11
2.939277
 21
0.8427100000000001
 31
0.0
  0
ARC
  5
175
330
1E
100
AcDbEntity
  8
tool
  6
Continuous
 62
     7
100
AcDbCircle
 10
2.892402
 20
0.8427100000000001
 30
0.0
 40
0.046875
100
AcDbArc
 50
0.0
 51
90.0
  0
LINE
  5
176
330
1E
100
AcDbEntity
  8
tool
  6
Continuous
 62
     7
100
AcDbLine
 10
2.892402
 20
0.8895850000000001
 30
0.0
 11
2.486715
 21
0.8895850000000001
 31
0.0
  0
ARC
  5
177
330
1E
100
AcDbEntity
  8
tool
  6
Continuous
 62
     7
100
AcDbCircle
 10
2.486715
 20
0.90571
 30
0.0
 40
0.016125
100
AcDbArc
 50
91.503791
 51
270.000007
  0
LINE
  5
178
330
1E
100
AcDbEntity
  8
tool
  6
Continuous
 62
     7
100
AcDbLine
 10
2.486291999999999
 20
0.9218299999999999
 30
0.0
 11
2.523623
 21
0.9218209999999999
 31
0.0
  0
ARC
  5
179
330
1E
100
AcDbEntity
  8
tool
  6
Continuous
 62
     7
100
AcDbCircle
 10
2.523633
 20
0.9686959999999999
 30
0.0
 40
0.046875
100
AcDbArc
 50
269.987425
 51
71.50170999999999
  0
LINE
  5
17A
330
1E
100
AcDbEntity
  8
tool
  6
Continuous
 62
     7
100
AcDbLine
 10
2.538505999999999
 20
1.013149
 30
0.0
 11
2.487261
 21
1.030294
 31
0.0
  0
LINE
  5
17B
330
1E
100
AcDbEntity
  8
tool
  6
Continuous
 62
     7
100
AcDbLine
 10
2.487261
 20
1.030294
 30
0.0
 11
2.483156999999999
 21
1.045906999999999
 31
0.0
  0
LINE
  5
17C
330
1E
100
AcDbEntity
  8
tool
  6
Continuous
 62
     7
100
AcDbLine
 10
2.483156999999999
 20
1.045906999999999
 30
0.0
 11
2.603458999999999
 21
1.486161
 31
0.0
  0
LINE
  5
17D
330
1E
100
AcDbEntity
  8
tool
  6
Continuous
 62
     7
100
AcDbLine
 10
2.603458999999999
 20
1.486161
 30
0.0
 11
3.638263999999999
 21
1.486161
 31
0.0
  0
LINE
  5
17E
330
1E
100
AcDbEntity
  8
tool
  6
Continuous
 62
     7
100
AcDbLine
 10
3.638263999999999
 20
1.486161
 30
0.0
 11
3.607394999999999
 21
1.370145999999999
 31
0.0
  0
ARC
  5
17F
330
1E
100
AcDbEntity
  8
tool
  6
Continuous
 62
     7
100
AcDbCircle
 10
3.922206999999999
 20
1.256854999999999
 30
0.0
 40
0.334576
100
AcDbArc
 50
160.207658
 51
209.602788
  0
ARC
  5
180
330
1E
100
AcDbEntity
  8
tool
  6
Continuous
 62
     7
100
AcDbCircle
 10
2.730179
 20
1.511028
 30
0.0
 40
0.9939620000000001
100
AcDbArc
 50
328.252413
 51
335.039266
  0
ARC
  5
181
330
1E
100
AcDbEntity
  8
tool
  6
Continuous
 62
     7
100
AcDbCircle
 10
3.270366999999999
 20
1.236380999999999
 30
0.0
 40
0.393365
100
AcDbArc
 50
292.657204
 51
320.849701
  0
ARC
  5
182
330
1E
100
AcDbEntity
  8
tool
  6
Continuous
 62
     7
100
AcDbCircle
 10
3.414715
 20
0.90571
 30
0.0
 40
0.033125
100
AcDbArc
 50
109.023199
 51
282.523566
  0
ARC
  5
183
330
1E
100
AcDbEntity
  8
tool
  6
Continuous
 62
     7
100
AcDbCircle
 10
3.364401
 20
1.054872
 30
0.0
 40
0.124295
100
AcDbArc
 50
288.537769
 51
108.9056049999999
  0
ARC
  5
184
330
1E
100
AcDbEntity
  8
tool
  6
Continuous
 62
     7
100
AcDbCircle
 10
3.339316
 20
1.128115999999999
 30
0.0
 40
0.046875
100
AcDbArc
 50
108.905605
 51
110.424426
  0
ARC
  5
185
330
1E
100
AcDbEntity
  8
tool
  6
Continuous
 62
     7
100
AcDbCircle
 10
3.422646999999999
 20
0.9043389999999998
 30
0.0
 40
0.285664
100
AcDbArc
 50
110.424426
 51
283.895381
  0
ARC
  5
186
330
1E
100
AcDbEntity
  8
tool
  6
Continuous
 62
     7
100
AcDbCircle
 10
3.388476
 20
1.096233
 30
0.0
 40
0.4803220000000001
100
AcDbArc
 50
282.354918
 51
332.623637
  0
ARC
  5
187
330
1E
100
AcDbEntity
  8
tool
  6
Continuous
 62
     7
100
AcDbCircle
 10
2.703781
 20
1.489024999999999
 30
0.0
 40
1.269408
100
AcDbArc
 50
331.090846
 51
333.947019
  0
ARC
  5
188
330
1E
100
AcDbEntity
  8
tool
  6
Continuous
 62
     7
100
AcDbCircle
 10
3.922206999999999
 20
1.256854999999999
 30
0.0
 40
0.334576
100
AcDbArc
 50
256.517721
 51
275.929221
  0
LINE
  5
189
330
1E
100
AcDbEntity
  8
tool
  6
Continuous
 62
     7
100
AcDbLine
 10
3.956767999999999
 20
0.9240679999999999
 30
0.0
 11
4.077552999999999
 21
0.92566
 31
0.0
  0
ARC
  5
18A
330
1E
100
AcDbEntity
  8
tool
  6
Continuous
 62
     7
100
AcDbCircle
 10
4.094088
 20
1.401993
 30
0.0
 40
0.47662
100
AcDbArc
 50
268.011847
 51
350.5616100000001
  0
LINE
  5
18B
330
1E
100
AcDbEntity
  8
tool
  6
Continuous
 62
     7
100
AcDbLine
 10
4.564255999999999
 20
1.323833
 30
0.0
 11
4.811801999999999
 21
2.187195999999999
 31
0.0
  0
LINE
  5
18C
330
1E
100
AcDbEntity
  8
tool
  6
Continuous
 62
     7
100
AcDbLine
 10
4.811801999999999
 20
2.187195999999999
 30
0.0
 11
4.918702999999999
 21
2.240111999999999
 31
0.0
  0
ARC
  5
18D
330
1E
100
AcDbEntity
  8
tool
  6
Continuous
 62
     7
100
AcDbCircle
 10
4.897908
 20
2.282122
 30
0.0
 40
0.046875
100
AcDbArc
 50
296.33559
 51
90.24517500000001
  0
LINE
  5
18E
330
1E
100
AcDbEntity
  8
tool
  6
Continuous
 62
     7
100
AcDbLine
 10
4.897706999999999
 20
2.328996
 30
0.0
 11
4.497827
 21
2.327284999999999
 31
0.0
  0
ARC
  5
18F
330
1E
100
AcDbEntity
  8
tool
  6
Continuous
 62
     7
100
AcDbCircle
 10
4.498026999999999
 20
2.280410999999999
 30
0.0
 40
0.046875
100
AcDbArc
 50
90.24517499999999
 51
243.66441
  0
LINE
  5
190
330
1E
100
AcDbEntity
  8
tool
  6
Continuous
 62
     7
100
AcDbLine
 10
4.477231999999999
 20
2.238400999999999
 30
0.0
 11
4.565020999999999
 21
2.194945
 31
0.0
  0
LINE
  5
191
330
1E
100
AcDbEntity
  8
tool
  6
Continuous
 62
     7
100
AcDbLine
 10
4.565020999999999
 20
2.194945
 30
0.0
 11
4.333408
 21
1.387154999999999
 31
0.0
  0
ARC
  5
192
330
1E
100
AcDbEntity
  8
tool
  6
Continuous
 62
     7
100
AcDbCircle
 10
4.378467999999999
 20
1.374236
 30
0.0
 40
0.046875
100
AcDbArc
 50
164.001178
 51
164.659255
  0
ARC
  5
193
330
1E
100
AcDbEntity
  8
tool
  6
Continuous
 62
     7
100
AcDbCircle
 10
4.038807
 20
1.467416
 30
0.0
 40
0.305336
100
AcDbArc
 50
277.7611830000001
 51
344.659255
  0
LINE
  5
194
330
1E
100
AcDbEntity
  8
tool
  6
Continuous
 62
     7
100
AcDbLine
 10
4.080041
 20
1.164878
 30
0.0
 11
3.937105999999999
 21
1.162498
 31
0.0
  0
ARC
  5
195
330
1E
100
AcDbEntity
  8
tool
  6
Continuous
 62
     7
100
AcDbCircle
 10
3.937886
 20
1.115629999999999
 30
0.0
 40
0.046875
100
AcDbArc
 50
90.95367600000001
 51
96.071369
  0
ARC
  5
196
330
1E
100
AcDbEntity
  8
tool
  6
Continuous
 62
     7
100
AcDbCircle
 10
3.922731999999999
 20
1.258104
 30
0.0
 40
0.096403
100
AcDbArc
 50
274.527856
 51
276.071369
  0
ARC
  5
197
330
1E
100
AcDbEntity
  8
tool
  6
Continuous
 62
     7
100
AcDbCircle
 10
2.703781
 20
1.489024999999999
 30
0.0
 40
1.269408
100
AcDbArc
 50
345.0712
 51
11.05278900000003
  0
LINE
  5
198
330
1E
100
AcDbEntity
  8
tool
  6
Continuous
 62
     7
100
AcDbLine
 10
3.949641999999999
 20
1.732388
 30
0.0
 11
4.068076999999999
 21
2.184785999999999
 31
0.0
  0
LINE
  5
199
330
1E
100
AcDbEntity
  8
tool
  6
Continuous
 62
     7
100
AcDbLine
 10
4.068076999999999
 20
2.184785999999999
 30
0.0
 11
4.08511
 21
2.218833
 31
0.0
  0
LINE
  5
19A
330
1E
100
AcDbEntity
  8
tool
  6
Continuous
 62
     7
100
AcDbLine
 10
4.08511
 20
2.218833
 30
0.0
 11
4.141351999999999
 21
2.237586999999999
 31
0.0
  0
ARC
  5
19B
330
1E
100
AcDbEntity
  8
tool
  6
Continuous
 62
     7
100
AcDbCircle
 10
4.126523999999999
 20
2.282054999999999
 30
0.0
 40
0.046875
100
AcDbArc
 50
288.440992
 51
89.98926300000002
  0
LINE
  5
19C
330
1E
100
AcDbEntity
  8
tool
  6
Continuous
 62
     7
100
AcDbLine
 10
4.126533
 20
2.328929999999999
 30
0.0
 11
3.774330999999999
 21
2.328996
 31
0.0
  0
ARC
  5
19D
330
1E
100
AcDbEntity
  8
tool
  6
Continuous
 62
     7
100
AcDbCircle
 10
3.774322
 20
2.282121
 30
0.0
 40
0.046875
100
AcDbArc
 50
89.98926299999999
 51
251.559008
  0
LINE
  5
19E
330
1E
100
AcDbEntity
  8
tool
  6
Continuous
 62
     7
100
AcDbLine
 10
3.759494
 20
2.237652999999999
 30
0.0
 11
3.815933999999999
 21
2.218833
 31
0.0
  0
LINE
  5
19F
330
1E
100
AcDbEntity
  8
tool
  6
Continuous
 62
     7
100
AcDbLine
 10
3.815933999999999
 20
2.218833
 30
0.0
 11
3.827212999999999
 21
2.196288
 31
0.0
  0
LINE
  5
1A0
330
1E
100
AcDbEntity
  8
tool
  6
Continuous
 62
     7
100
AcDbLine
 10
3.827212999999999
 20
2.196288
 30
0.0
 11
3.806391
 21
2.118031
 31
0.0
  0
ARC
  5
1A1
330
1E
100
AcDbEntity
  8
tool
  6
Continuous
 62
     7
100
AcDbCircle
 10
2.703781
 20
1.489024999999999
 30
0.0
 40
1.269408
100
AcDbArc
 50
29.70345700000001
 51
40.337915
  0
ARC
  5
1A2
330
1E
100
AcDbEntity
  8
tool
  6
Continuous
 62
     7
100
AcDbCircle
 10
3.635644
 20
2.280364
 30
0.0
 40
0.046875
100
AcDbArc
 50
40.337915
 51
89.29663000000001
  0
LINE
  5
1A3
330
1E
100
AcDbEntity
  8
tool
  6
Continuous
 62
     7
100
AcDbLine
 10
3.636219999999999
 20
2.327234999999999
 30
0.0
 11
3.479791
 21
2.329156
 31
0.0
  0
ARC
  5
1A4
330
1E
100
AcDbEntity
  8
tool
  6
Continuous
 62
     7
100
AcDbCircle
 10
3.479214999999999
 20
2.282284
 30
0.0
 40
0.046875
100
AcDbArc
 50
89.29663000000001
 51
90.0
  0
ARC
  5
1A5
330
1E
100
AcDbEntity
  8
tool
  6
Continuous
 62
     7
100
AcDbCircle
 10
3.479214999999999
 20
2.345283999999999
 30
0.0
 40
0.016125
100
AcDbArc
 50
90.0
 51
270.0
  0
ARC
  5
1A6
330
1E
100
AcDbEntity
  8
tool
  6
Continuous
 62
     7
100
AcDbCircle
 10
3.479214999999999
 20
2.408284
 30
0.0
 40
0.046875
100
AcDbArc
 50
270.0
 51
280.271278
  0
LINE
  5
1A7
330
1E
100
AcDbEntity
  8
tool
  6
Continuous
 62
     7
100
AcDbLine
 10
3.487573999999999
 20
2.362160999999999
 30
0.0
 11
3.508262
 21
2.365909999999999
 31
0.0
  0
ARC
  5
1A8
330
1E
100
AcDbEntity
  8
tool
  6
Continuous
 62
     7
100
AcDbCircle
 10
3.499903999999999
 20
2.412033
 30
0.0
 40
0.046875
100
AcDbArc
 50
280.271278
 51
45.05803099999998
  0
ARC
  5
1A9
330
1E
100
AcDbEntity
  8
tool
  6
Continuous
 62
     7
100
AcDbCircle
 10
4.170176999999999
 20
3.083665
 30
0.0
 40
0.9019959999999999
100
AcDbArc
 50
174.127075
 51
225.058031
  0
ARC
  5
1AA
330
1E
100
AcDbEntity
  8
tool
  6
Continuous
 62
     7
100
AcDbCircle
 10
2.682047999999999
 20
3.326205999999999
 30
0.0
 40
0.60967
100
AcDbArc
 50
345.733184
 51
59.183819
  0
ARC
  5
1AB
330
1E
100
AcDbEntity
  8
tool
  6
Continuous
 62
     7
100
AcDbCircle
 10
2.569547
 20
3.303455999999999
 30
0.0
 40
0.6920760000000001
100
AcDbArc
 50
52.132082
 51
114.126473
  0
ARC
  5
1AC
330
1E
100
AcDbEntity
  8
tool
  6
Continuous
 62
     7
100
AcDbCircle
 10
1.904041999999999
 20
5.147126
 30
0.0
 40
1.271007999999999
100
AcDbArc
 50
258.5193779999999
 51
287.519768
  0
ARC
  5
1AD
330
1E
100
AcDbEntity
  8
tool
  6
Continuous
 62
     7
100
AcDbCircle
 10
1.020889999999999
 20
2.934581999999999
 30
0.0
 40
1.154185
100
AcDbArc
 50
56.90758000000001
 51
69.021638
  0
ARC
  5
1AE
330
1E
100
AcDbEntity
  8
tool
  6
Continuous
 62
     7
100
AcDbCircle
 10
0.529807
 20
3.233797
 30
0.0
 40
1.193216999999999
100
AcDbArc
 50
40.72352600000001
 51
56.191745
  0
ARC
  5
1AF
330
1E
100
AcDbEntity
  8
tool
  6
Continuous
 62
     7
100
AcDbCircle
 10
0.9518679999999999
 20
3.87324
 30
0.0
 40
0.42709
100
AcDbArc
 50
55.50708399999999
 51
67.23486
  0
ARC
  5
1B0
330
1E
100
AcDbEntity
  8
tool
  6
Continuous
 62
     7
100
AcDbCircle
 10
0.874878
 20
4.187523
 30
0.0
 40
0.254977
100
AcDbArc
 50
18.175776
 51
55.95619800000001
  0
ARC
  5
1B1
330
1E
100
AcDbEntity
  8
tool
  6
Continuous
 62
     7
100
AcDbCircle
 10
0.991379
 20
4.359958999999999
 30
0.0
 40
0.046875
100
AcDbArc
 50
55.95619800000001
 51
167.264942
  0
ARC
  5
1B2
330
1E
100
AcDbEntity
  8
tool
  6
Continuous
 62
     7
100
AcDbCircle
 10
0.183759
 20
4.542482999999999
 30
0.0
 40
0.7811130000000001
100
AcDbArc
 50
342.412537
 51
347.264942
  0
ARC
  5
1B3
330
1E
100
AcDbEntity
  8
tool
  6
Continuous
 62
     7
100
AcDbCircle
 10
0.927753
 20
4.151938999999999
 30
0.0
 40
0.154523
100
AcDbArc
 50
89.774644
 51
92.12561299999999
  0
ARC
  5
1B4
330
1E
100
AcDbEntity
  8
tool
  6
Continuous
 62
     7
100
AcDbCircle
 10
0.6760070000000001
 20
4.163812999999999
 30
0.0
 40
0.284326
100
AcDbArc
 50
30.088308
 51
56.77231599999999
  0
ARC
  5
1B5
330
1E
100
AcDbEntity
  8
tool
  6
Continuous
 62
     7
100
AcDbCircle
 10
0.8061229999999998
 20
4.362441
 30
0.0
 40
0.046875
100
AcDbArc
 50
56.77231599999999
 51
197.028966
  0
ARC
  5
1B6
330
1E
100
AcDbEntity
  8
tool
  6
Continuous
 62
     7
100
AcDbCircle
 10
0.285162
 20
4.202879
 30
0.0
 40
0.4979729999999999
100
AcDbArc
 50
8.322916000000001
 51
17.028966
  0
ARC
  5
1B7
330
1E
100
AcDbEntity
  8
tool
  6
Continuous
 62
     7
100
AcDbCircle
 10
0.8676649999999998
 20
4.077599
 30
0.0
 40
0.216822
100
AcDbArc
 50
114.459346
 51
140.247586
  0
ARC
  5
1B8
330
1E
100
AcDbEntity
  8
tool
  6
Continuous
 62
     7
100
AcDbCircle
 10
0.752578
 20
4.156723999999999
 30
0.0
 40
0.078783
100
AcDbArc
 50
130.924905
 51
192.6406829999999
  0
ARC
  5
1B9
330
1E
100
AcDbEntity
  8
tool
  6
Continuous
 62
     7
100
AcDbCircle
 10
-0.4629310000000001
 20
5.240719999999999
 30
0.0
 40
1.584049999999999
100
AcDbArc
 50
313.1187109999999
 51
315.956592
  0
ARC
  5
1BA
330
1E
100
AcDbEntity
  8
tool
  6
Continuous
 62
     7
100
AcDbCircle
 10
0.6712690000000001
 20
4.015725999999999
 30
0.0
 40
0.085877
100
AcDbArc
 50
126.834007
 51
228.349187
  0
ARC
  5
1BB
330
1E
100
AcDbEntity
  8
tool
  6
Continuous
 62
     7
100
AcDbCircle
 10
0.753463
 20
4.017758999999999
 30
0.0
 40
0.154201
100
AcDbArc
 50
205.42416
 51
290.527761
  0
ARC
  5
1BC
330
1E
100
AcDbEntity
  8
tool
  6
Continuous
 62
     7
100
AcDbCircle
 10
0.772833
 20
4.190755999999999
 30
0.0
 40
0.319298
100
AcDbArc
 50
276.239561
 51
292.762925
  0
ARC
  5
1BD
330
1E
100
AcDbEntity
  8
tool
  6
Continuous
 62
     7
100
AcDbCircle
 10
0.8876629999999998
 20
3.849999
 30
0.0
 40
0.04714
100
AcDbArc
 50
50.67532700000001
 51
79.349616
  0
ARC
  5
1BE
330
1E
100
AcDbEntity
  8
tool
  6
Continuous
 62
     7
100
AcDbCircle
 10
0.261849
 20
3.507162
 30
0.0
 40
0.7574930000000001
100
AcDbArc
 50
357.524886
 51
30.04860400000006
  0
ARC
  5
1BF
330
1E
100
AcDbEntity
  8
tool
  6
Continuous
 62
     7
100
AcDbCircle
 10
1.991191999999999
 20
3.363636
 30
0.0
 40
0.9788489999999999
100
AcDbArc
 50
173.499744
 51
192.3929029999999
  0
ARC
  5
1C0
330
1E
100
AcDbEntity
  8
tool
  6
Continuous
 62
     7
100
AcDbCircle
 10
-989.350914
 20
228.656005
 30
0.0
 40
1015.734173
100
AcDbArc
 50
347.140255
 51
347.172923
  0
ARC
  5
1C1
330
1E
100
AcDbEntity
  8
tool
  6
Continuous
 62
     7
100
AcDbCircle
 10
0.8549049999999999
 20
2.640746
 30
0.0
 40
0.073074
100
AcDbArc
 50
261.837223
 51
314.823469
  0
ARC
  5
1C2
330
1E
100
AcDbEntity
  8
tool
  6
Continuous
 62
     7
100
AcDbCircle
 10
0.8312190000000001
 20
2.475611999999999
 30
0.0
 40
0.09375
100
AcDbArc
 50
81.83722299999999
 51
102.304419
  0
ARC
  5
1C3
330
1E
100
AcDbEntity
  8
tool
  6
Continuous
 62
     7
100
AcDbCircle
 10
0.8478559999999999
 20
2.399335999999999
 30
0.0
 40
0.171819
100
AcDbArc
 50
102.304419
 51
175.919268
  0
ARC
  5
1C4
330
1E
100
AcDbEntity
  8
tool
  6
Continuous
 62
     7
100
AcDbCircle
 10
0.723228
 20
2.408227
 30
0.0
 40
0.046875
100
AcDbArc
 50
175.919268
 51
270.001444
  0
LINE
  5
1C5
330
1E
100
AcDbEntity
  8
tool
  6
Continuous
 62
     7
100
AcDbLine
 10
0.723229
 20
2.361352
 30
0.0
 11
1.139467999999999
 21
2.361363
 31
0.0
  0
ARC
  5
1C6
330
1E
100
AcDbEntity
  8
tool
  6
Continuous
 62
     7
100
AcDbCircle
 10
1.138777
 20
2.345253
 30
0.0
 40
0.016125
100
AcDbArc
 50
270.0
 51
87.54306500000007
  0
ARC
  5
1C7
330
1E
100
AcDbEntity
  8
tool
  6
Continuous
 62
     7
100
AcDbCircle
 10
1.138777
 20
2.282252999999999
 30
0.0
 40
0.046875
100
AcDbArc
 50
90.0
 51
91.92403099999999
  0
LINE
  5
1C8
330
1E
100
AcDbEntity
  8
tool
  6
Continuous
 62
     7
100
AcDbLine
 10
1.137202999999999
 20
2.329100999999999
 30
0.0
 11
0.9505450000000001
 21
2.329026999999999
 31
0.0
  0
ARC
  5
1C9
330
1E
100
AcDbEntity
  8
tool
  6
Continuous
 62
     7
100
AcDbCircle
 10
0.9505639999999999
 20
2.282151999999999
 30
0.0
 40
0.046875
100
AcDbArc
 50
90.02273500000001
 51
206.608901
  0
LINE
  5
1CA
330
1E
100
AcDbEntity
  8
tool
  6
Continuous
 62
     7
100
AcDbLine
 10
0.9086529999999999
 20
2.261156999999999
 30
0.0
 11
0.9402749999999999
 21
2.198034999999999
 31
0.0
  0
LINE
  5
1CB
330
1E
100
AcDbEntity
  8
tool
  6
Continuous
 62
     7
100
AcDbLine
 10
0.9402749999999999
 20
2.198034999999999
 30
0.0
 11
0.621223
 21
1.081344999999999
 31
0.0
  0
LINE
  5
1CC
330
1E
100
AcDbEntity
  8
tool
  6
Continuous
 62
     7
100
AcDbLine
 10
0.621223
 20
1.081344999999999
 30
0.0
 11
0.5744150000000001
 21
1.034051999999999
 31
0.0
  0
LINE
  5
1CD
330
1E
100
AcDbEntity
  8
tool
  6
Continuous
 62
     7
100
AcDbLine
 10
0.5744150000000001
 20
1.034051999999999
 30
0.0
 11
0.543117
 21
1.002429999999999
 31
0.0
  0
ARC
  5
1CE
330
1E
100
AcDbEntity
  8
tool
  6
Continuous
 62
     7
100
AcDbCircle
 10
0.576433
 20
0.9694559999999999
 30
0.0
 40
0.046875
100
AcDbArc
 50
135.2952399999999
 51
269.976399
  0
LINE
  5
1CF
330
1E
100
AcDbEntity
  8
tool
  6
Continuous
 62
     7
100
AcDbLine
 10
0.576414
 20
0.9225809999999999
 30
0.0
 11
0.886958
 21
0.9224530000000001
 31
0.0
  0
ARC
  5
1D0
330
1E
100
AcDbEntity
  8
tool
  6
Continuous
 62
     7
100
AcDbCircle
 10
0.886977
 20
0.9693280000000001
 30
0.0
 40
0.046875
100
AcDbArc
 50
269.976399
 51
271.86053
  0
LINE
  5
1D1
330
1E
100
AcDbEntity
  8
tool
  6
Continuous
 62
     7
100
AcDbLine
 10
0.8884989999999998
 20
0.922478
 30
0.0
 11
1.129612999999999
 21
0.9224579999999999
 31
0.0
  0
LINE
  5
1D2
330
1E
100
AcDbEntity
  8
tool
  6
Continuous
 62
     7
100
AcDbLine
 10
1.129612999999999
 20
0.9224579999999999
 30
0.0
 11
1.134687999999999
 21
0.9220139999999998
 31
0.0
  0
ARC
  5
1D3
330
1E
100
AcDbEntity
  8
tool
  6
Continuous
 62
     7
100
AcDbCircle
 10
1.138777
 20
0.96871
 30
0.0
 40
0.046875
100
AcDbArc
 50
264.996541
 51
270.0
  0
ARC
  5
1D4
330
1E
100
AcDbEntity
  8
tool
  6
Continuous
 62
     7
100
AcDbCircle
 10
1.138777
 20
0.90571
 30
0.0
 40
0.016125
100
AcDbArc
 50
270.000003
 51
90.0
  0
LINE
  5
1D5
330
1E
100
AcDbEntity
  8
tool
  6
Continuous
 62
     7
100
AcDbLine
 10
1.138777
 20
0.8895850000000001
 30
0.0
 11
0.0
 21
0.8895850000000001
 31
0.0
  0
ARC
  5
1D6
330
1E
100
AcDbEntity
  8
tool
  6
Continuous
 62
     7
100
AcDbCircle
 10
0.0
 20
0.8427100000000001
 30
0.0
 40
0.046875
100
AcDbArc
 50
90.0
 51
180.0
  0
LINE
  5
1D7
330
1E
100
AcDbEntity
  8
tool
  6
Continuous
 62
     7
100
AcDbLine
 10
-0.046875
 20
0.8427100000000001
 30
0.0
 11
-0.046875
 21
0.0
 31
0.0
  0
ARC
  5
1D8
330
1E
100
AcDbEntity
  8
tool
  6
Continuous
 62
     7
100
AcDbCircle
 10
0.0
 20
0.0
 30
0.0
 40
0.046875
100
AcDbArc
 50
180.0
 51
270.0
  0
LINE
  5
1D9
330
1E
100
AcDbEntity
  8
tool
  6
Continuous
 62
     7
100
AcDbLine
 10
0.0
 20
-0.046875
 30
0.0
 11
4.990965
 21
-0.046875
 31
0.0
  0
ARC
  5
1DA
330
1E
100
AcDbEntity
  8
tool
  6
Continuous
 62
     7
100
AcDbCircle
 10
4.990965
 20
0.0
 30
0.0
 40
0.046875
100
AcDbArc
 50
270.0
 51
0.0
  0
INSERT
  5
1DB
330
1E
100
AcDbEntity
  8
tool
 62
     7
100
AcDbBlockReference
  2
OBJECT_0
 10
-10.16
 20
-10.16
 30
0.0
  0
INSERT
  5
1DC
330
1E
100
AcDbEntity
  8
tool
 62
     7
100
AcDbBlockReference
  2
OBJECT_1
 10
5.129999999999999
 20
-10.16
 30
0.0
  0
ENDSEC
  0
SECTION
  2
OBJECTS
  0
DICTIONARY
  5
C
330
0
100
AcDbDictionary
281
     1
  3
ACAD_COLOR
350
20E
  3
ACAD_GROUP
350
D
  3
ACAD_LAYOUT
350
19
  3
ACAD_MATERIAL
350
20D
  3
ACAD_MLINESTYLE
350
16
  3
ACAD_PLOTSETTINGS
350
18
  3
ACAD_PLOTSTYLENAME
350
E
  3
ACAD_TABLESTYLE
350
20F
  3
AcDbVariableDictionary
350
1E0
  3
ASE_INDEX_DICTIONARY
350
214
  0
DICTIONARY
  5
20E
102
{ACAD_REACTORS
330
C
102
}
330
C
100
AcDbDictionary
281
     1
  0
DICTIONARY
  5
D
102
{ACAD_REACTORS
330
C
102
}
330
C
100
AcDbDictionary
281
     1
  0
DICTIONARY
  5
19
102
{ACAD_REACTORS
330
C
102
}
330
C
100
AcDbDictionary
281
     1
  3
Layout1
350
1D
  3
Model
350
21
  0
DICTIONARY
  5
20D
102
{ACAD_REACTORS
330
C
102
}
330
C
100
AcDbDictionary
281
     1
  0
DICTIONARY
  5
16
102
{ACAD_REACTORS
330
C
102
}
330
C
100
AcDbDictionary
281
     1
  3
Standard
350
17
  0
DICTIONARY
  5
18
102
{ACAD_REACTORS
330
C
102
}
330
C
100
AcDbDictionary
281
     1
  0
ACDBDICTIONARYWDFLT
  5
E
102
{ACAD_REACTORS
330
C
102
}
330
C
100
AcDbDictionary
281
     1
  3
Normal
350
F
100
AcDbDictionaryWithDefault
340
F
  0
DICTIONARY
  5
20F
102
{ACAD_REACTORS
330
C
102
}
330
C
100
AcDbDictionary
281
     1
  3
Standard
350
210
  0
DICTIONARY
  5
1E0
102
{ACAD_REACTORS
330
C
102
}
330
C
100
AcDbDictionary
281
     1
  3
CTABLESTYLE
350
217
  3
DIMASSOC
350
1E1
  0
DICTIONARY
  5
214
102
{ACAD_REACTORS
330
C
102
}
330
C
100
AcDbDictionary
281
     1
  3
ASEBlockHierarchyIndexRecord
350
216
1001
DCO15
1040
1592641861.78
  0
LAYOUT
  5
1D
102
{ACAD_REACTORS
330
19
102
}
330
19
100
AcDbPlotSettings
  1

  2
PrintsCharming
  4

  6

 40
0.0
 41
0.0
 42
0.0
 43
0.0
 44
0.0
 45
0.0
 46
0.0
 47
0.0
 48
0.0
 49
0.0
140
0.0
141
0.0
142
1.0
143
1.0
 70
   688
 72
     0
 73
     0
 74
     5
  7

 75
    16
147
1.0
 76
     0
 77
     2
 78
   300
148
0.0
149
0.0
100
AcDbLayout
  1
Layout1
 70
     1
 71
     1
 10
0.0
 20
0.0
 11
12.0
 21
9.0
 12
0.0
 22
0.0
 32
0.0
 14
1.000000000000000E+20
 24
1.000000000000000E+20
 34
1.000000000000000E+20
 15
-1.000000000000000E+20
 25
-1.000000000000000E+20
 35
-1.000000000000000E+20
146
0.0
 13
0.0
 23
0.0
 33
0.0
 16
1.0
 26
0.0
 36
0.0
 17
0.0
 27
1.0
 37
0.0
 76
     0
330
1A
  0
LAYOUT
  5
21
102
{ACAD_REACTORS
330
19
102
}
330
19
100
AcDbPlotSettings
  1

  2
PrintsCharming
  4

  6

 40
0.0
 41
0.0
 42
0.0
 43
0.0
 44
0.0
 45
0.0
 46
0.0
 47
0.0
 48
0.0
 49
0.0
140
0.0
141
0.0
142
1.0
143
1.0
 70
  1712
 72
     0
 73
     0
 74
     0
  7

 75
     0
147
1.0
 76
     0
 77
     2
 78
   300
148
0.0
149
0.0
100
AcDbLayout
  1
Model
 70
     1
 71
     0
 10
0.0
 20
0.0
 11
12.0
 21
9.0
 12
0.0
 22
0.0
 32
0.0
 14
0.0
 24
0.0
 34
0.0
 15
0.0
 25
0.0
 35
0.0
146
0.0
 13
0.0
 23
0.0
 33
0.0
 16
1.0
 26
0.0
 36
0.0
 17
0.0
 27
1.0
 37
0.0
 76
     0
330
1E
  0
MLINESTYLE
  5
17
102
{ACAD_REACTORS
330
16
102
}
330
16
100
AcDbMlineStyle
  2
STANDARD
 70
     0
  3

 62
   256
 51
90.0
 52
90.0
 71
     2
 49
0.5
 62
   256
  6
BYLAYER
 49
-0.5
 62
   256
  6
BYLAYER
  0
ACDBPLACEHOLDER
  5
F
102
{ACAD_REACTORS
330
E
102
}
330
E
  0
TABLESTYLE
  5
210
102
{ACAD_REACTORS
330
20F
102
}
330
20F
100
AcDbTableStyle
  3
Standard
 70
     0
 71
     0
 40
0.06
 41
0.06
280
     0
281
     0
  7
Standard
140
0.18
170
     2
 62
     0
 63
     7
283
     0
274
    -2
284
     1
 64
     0
275
    -2
285
     1
 65
     0
276
    -2
286
     1
 66
     0
277
    -2
287
     1
 67
     0
278
    -2
288
     1
 68
     0
279
    -2
289
     1
 69
     0
  7
Standard
140
0.25
170
     5
 62
     0
 63
     7
283
     0
274
    -2
284
     1
 64
     0
275
    -2
285
     1
 65
     0
276
    -2
286
     1
 66
     0
277
    -2
287
     1
 67
     0
278
    -2
288
     1
 68
     0
279
    -2
289
     1
 69
     0
  7
Standard
140
0.18
170
     5
 62
     0
 63
     7
283
     0
274
    -2
284
     1
 64
     0
275
    -2
285
     1
 65
     0
276
    -2
286
     1
 66
     0
277
    -2
287
     1
 67
     0
278
    -2
288
     1
 68
     0
279
    -2
289
     1
 69
     0
  0
DICTIONARYVAR
  5
217
102
{ACAD_REACTORS
330
1E0
102
}
330
1E0
100
DictionaryVariables
280
     0
  1
STANDARD
  0
DICTIONARYVAR
  5
1E1
102
{ACAD_REACTORS
330
1E0
102
}
330
1E0
100
DictionaryVariables
280
     0
  1
1
  0
XRECORD
  5
216
102
{ACAD_REACTORS
330
214
102
}
330
214
100
AcDbXrecord
280
     1
330
1DB
330
1DC
  0
ENDSEC
  0
EOF
