  0
SECTION
  2
HEADER
  9
$ACADVER
  1
AC1018
  9
$ACADMAINTVER
 70
    76
  9
$DWGCODEPAGE
  3
ANSI_1252
  9
$INSBASE
 10
0.0
 20
0.0
 30
0.0
  9
$EXTMIN
 10
0.034753
 20
0.0502220000000002
 30
0.0
  9
$EXTMAX
 10
7.431064999999999
 20
5.135118999999999
 30
0.0
  9
$LIMMIN
 10
0.0
 20
0.0
  9
$LIMMAX
 10
12.0
 20
9.0
  9
$ORTHOMODE
 70
     0
  9
$REGENMODE
 70
     1
  9
$FILLMODE
 70
     1
  9
$QTEXTMODE
 70
     0
  9
$MIRRTEXT
 70
     1
  9
$LTSCALE
 40
0.5
  9
$ATTMODE
 70
     1
  9
$TEXTSIZE
 40
0.2
  9
$TRACEWID
 40
0.05
  9
$TEXTSTYLE
  7
TXT
  9
$CLAYER
  8
1
  9
$CELTYPE
  6
CONTINUOUS
  9
$CECOLOR
 62
     7
  9
$CELTSCALE
 40
1.0
  9
$DISPSILH
 70
     0
  9
$DIMSCALE
 40
1.0
  9
$DIMASZ
 40
0.18
  9
$DIMEXO
 40
0.0625
  9
$DIMDLI
 40
0.38
  9
$DIMRND
 40
0.0
  9
$DIMDLE
 40
0.0
  9
$DIMEXE
 40
0.18
  9
$DIMTP
 40
0.0
  9
$DIMTM
 40
0.0
  9
$DIMTXT
 40
0.18
  9
$DIMCEN
 40
0.09
  9
$DIMTSZ
 40
0.0
  9
$DIMTOL
 70
     0
  9
$DIMLIM
 70
     0
  9
$DIMTIH
 70
     1
  9
$DIMTOH
 70
     1
  9
$DIMSE1
 70
     0
  9
$DIMSE2
 70
     0
  9
$DIMTAD
 70
     0
  9
$DIMZIN
 70
     0
  9
$DIMBLK
  1

  9
$DIMASO
 70
     1
  9
$DIMSHO
 70
     1
  9
$DIMPOST
  1

  9
$DIMAPOST
  1

  9
$DIMALT
 70
     0
  9
$DIMALTD
 70
     2
  9
$DIMALTF
 40
25.4
  9
$DIMLFAC
 40
1.0
  9
$DIMTOFL
 70
     0
  9
$DIMTVP
 40
0.0
  9
$DIMTIX
 70
     0
  9
$DIMSOXD
 70
     0
  9
$DIMSAH
 70
     0
  9
$DIMBLK1
  1

  9
$DIMBLK2
  1

  9
$DIMSTYLE
  2
STANDARD
  9
$DIMCLRD
 70
     0
  9
$DIMCLRE
 70
     0
  9
$DIMCLRT
 70
     0
  9
$DIMTFAC
 40
1.0
  9
$DIMGAP
 40
0.09
  9
$DIMJUST
 70
     0
  9
$DIMSD1
 70
     0
  9
$DIMSD2
 70
     0
  9
$DIMTOLJ
 70
     1
  9
$DIMTZIN
 70
     0
  9
$DIMALTZ
 70
     0
  9
$DIMALTTZ
 70
     0
  9
$DIMUPT
 70
     0
  9
$DIMDEC
 70
     4
  9
$DIMTDEC
 70
     4
  9
$DIMALTU
 70
     2
  9
$DIMALTTD
 70
     2
  9
$DIMTXSTY
  7
STANDARD
  9
$DIMAUNIT
 70
     0
  9
$DIMADEC
 70
     0
  9
$DIMALTRND
 40
0.0
  9
$DIMAZIN
 70
     0
  9
$DIMDSEP
 70
    46
  9
$DIMATFIT
 70
     3
  9
$DIMFRAC
 70
     0
  9
$DIMLDRBLK
  1

  9
$DIMLUNIT
 70
     2
  9
$DIMLWD
 70
    -2
  9
$DIMLWE
 70
    -2
  9
$DIMTMOVE
 70
     0
  9
$LUNITS
 70
     2
  9
$LUPREC
 70
     4
  9
$SKETCHINC
 40
0.1
  9
$FILLETRAD
 40
0.125
  9
$AUNITS
 70
     0
  9
$AUPREC
 70
     0
  9
$MENU
  1
acad
  9
$ELEVATION
 40
0.0
  9
$PELEVATION
 40
0.0
  9
$THICKNESS
 40
0.0
  9
$LIMCHECK
 70
     0
  9
$CHAMFERA
 40
0.5
  9
$CHAMFERB
 40
0.5
  9
$CHAMFERC
 40
0.0
  9
$CHAMFERD
 40
0.0
  9
$SKPOLY
 70
     0
  9
$TDCREATE
 40
2450261.539145949
  9
$TDUCREATE
 40
2450261.789145949
  9
$TDUPDATE
 40
2454236.551731030
  9
$TDUUPDATE
 40
2454236.801731030
  9
$TDINDWG
 40
0.0380681019
  9
$TDUSRTIMER
 40
0.0380681019
  9
$USRTIMER
 70
     1
  9
$ANGBASE
 50
0.0
  9
$ANGDIR
 70
     0
  9
$PDMODE
 70
     0
  9
$PDSIZE
 40
0.0
  9
$PLINEWID
 40
0.0
  9
$SPLFRAME
 70
     0
  9
$SPLINETYPE
 70
     6
  9
$SPLINESEGS
 70
     8
  9
$HANDSEED
  5
A1
  9
$SURFTAB1
 70
     6
  9
$SURFTAB2
 70
     6
  9
$SURFTYPE
 70
     6
  9
$SURFU
 70
     6
  9
$SURFV
 70
     6
  9
$UCSBASE
  2

  9
$UCSNAME
  2

  9
$UCSORG
 10
0.0
 20
0.0
 30
0.0
  9
$UCSXDIR
 10
1.0
 20
0.0
 30
0.0
  9
$UCSYDIR
 10
0.0
 20
1.0
 30
0.0
  9
$UCSORTHOREF
  2

  9
$UCSORTHOVIEW
 70
     0
  9
$UCSORGTOP
 10
0.0
 20
0.0
 30
0.0
  9
$UCSORGBOTTOM
 10
0.0
 20
0.0
 30
0.0
  9
$UCSORGLEFT
 10
0.0
 20
0.0
 30
0.0
  9
$UCSORGRIGHT
 10
0.0
 20
0.0
 30
0.0
  9
$UCSORGFRONT
 10
0.0
 20
0.0
 30
0.0
  9
$UCSORGBACK
 10
0.0
 20
0.0
 30
0.0
  9
$PUCSBASE
  2

  9
$PUCSNAME
  2

  9
$PUCSORG
 10
0.0
 20
0.0
 30
0.0
  9
$PUCSXDIR
 10
1.0
 20
0.0
 30
0.0
  9
$PUCSYDIR
 10
0.0
 20
1.0
 30
0.0
  9
$PUCSORTHOREF
  2

  9
$PUCSORTHOVIEW
 70
     0
  9
$PUCSORGTOP
 10
0.0
 20
0.0
 30
0.0
  9
$PUCSORGBOTTOM
 10
0.0
 20
0.0
 30
0.0
  9
$PUCSORGLEFT
 10
0.0
 20
0.0
 30
0.0
  9
$PUCSORGRIGHT
 10
0.0
 20
0.0
 30
0.0
  9
$PUCSORGFRONT
 10
0.0
 20
0.0
 30
0.0
  9
$PUCSORGBACK
 10
0.0
 20
0.0
 30
0.0
  9
$USERI1
 70
     0
  9
$USERI2
 70
     0
  9
$USERI3
 70
     0
  9
$USERI4
 70
     0
  9
$USERI5
 70
     0
  9
$USERR1
 40
0.0
  9
$USERR2
 40
0.0
  9
$USERR3
 40
0.0
  9
$USERR4
 40
0.0
  9
$USERR5
 40
0.0
  9
$WORLDVIEW
 70
     1
  9
$SHADEDGE
 70
     3
  9
$SHADEDIF
 70
    70
  9
$TILEMODE
 70
     1
  9
$MAXACTVP
 70
    16
  9
$PINSBASE
 10
0.0
 20
0.0
 30
0.0
  9
$PLIMCHECK
 70
     0
  9
$PEXTMIN
 10
1.000000000000000E+20
 20
1.000000000000000E+20
 30
1.000000000000000E+20
  9
$PEXTMAX
 10
-1.000000000000000E+20
 20
-1.000000000000000E+20
 30
-1.000000000000000E+20
  9
$PLIMMIN
 10
0.0
 20
0.0
  9
$PLIMMAX
 10
12.0
 20
9.0
  9
$UNITMODE
 70
     0
  9
$VISRETAIN
 70
     0
  9
$PLINEGEN
 70
     0
  9
$PSLTSCALE
 70
     1
  9
$TREEDEPTH
 70
  3020
  9
$CMLSTYLE
  2
STANDARD
  9
$CMLJUST
 70
     0
  9
$CMLSCALE
 40
1.0
  9
$PROXYGRAPHICS
 70
     1
  9
$MEASUREMENT
 70
     0
  9
$CELWEIGHT
370
    -1
  9
$ENDCAPS
280
     0
  9
$JOINSTYLE
280
     0
  9
$LWDISPLAY
290
     0
  9
$INSUNITS
 70
     0
  9
$HYPERLINKBASE
  1

  9
$STYLESHEET
  1

  9
$XEDIT
290
     1
  9
$CEPSNTYPE
380
     0
  9
$PSTYLEMODE
290
     1
  9
$FINGERPRINTGUID
  2
{D10F95E5-0AD3-4D24-A9DE-0FE1D697AC40}
  9
$VERSIONGUID
  2
{DF49570A-EB04-4F23-BFF7-94F8B9C277EA}
  9
$EXTNAMES
290
     1
  9
$PSVPSCALE
 40
0.0
  9
$OLESTARTUP
290
     0
  9
$SORTENTS
280
   127
  9
$INDEXCTL
280
     0
  9
$HIDETEXT
280
     0
  9
$XCLIPFRAME
290
     0
  9
$HALOGAP
280
     0
  9
$OBSCOLOR
 70
   257
  9
$OBSLTYPE
280
     0
  9
$INTERSECTIONDISPLAY
280
     0
  9
$INTERSECTIONCOLOR
 70
   257
  9
$DIMASSOC
280
     1
  9
$PROJECTNAME
  1

  0
ENDSEC
  0
SECTION
  2
CLASSES
  0
CLASS
  1
ACDBDICTIONARYWDFLT
  2
AcDbDictionaryWithDefault
  3
ObjectDBX Classes
 90
        0
 91
        1
280
     0
281
     0
  0
CLASS
  1
TABLESTYLE
  2
AcDbTableStyle
  3
ObjectDBX Classes
 90
     2047
 91
        1
280
     0
281
     0
  0
CLASS
  1
DICTIONARYVAR
  2
AcDbDictionaryVar
  3
ObjectDBX Classes
 90
        0
 91
        1
280
     0
281
     0
  0
ENDSEC
  0
SECTION
  2
TABLES
  0
TABLE
  2
VPORT
  5
8
330
0
100
AcDbSymbolTable
 70
     2
  0
VPORT
  5
A0
330
8
100
AcDbSymbolTableRecord
100
AcDbViewportTableRecord
  2
*Active
 70
     0
 10
0.0
 20
0.0
 11
1.0
 21
1.0
 12
5.123279782883217
 22
4.979055660615266
 13
0.0
 23
0.0
 14
1.0
 24
1.0
 15
0.0
 25
0.0
 16
0.0
 26
0.0
 36
1.0
 17
0.0
 27
0.0
 37
0.0
 40
16.15634350462832
 41
1.536679536679536
 42
50.0
 43
0.0
 44
0.0
 50
0.0
 51
0.0
 71
     0
 72
   100
 73
     1
 74
     1
 75
     0
 76
     0
 77
     0
 78
     0
281
     0
 65
     1
110
0.0
120
0.0
130
0.0
111
1.0
121
0.0
131
0.0
112
0.0
122
1.0
132
0.0
 79
     0
146
0.0
  0
ENDTAB
  0
TABLE
  2
LTYPE
  5
5
330
0
100
AcDbSymbolTable
 70
    10
  0
LTYPE
  5
12
330
5
100
AcDbSymbolTableRecord
100
AcDbLinetypeTableRecord
  2
BYBLOCK
 70
     0
  3

 72
    65
 73
     0
 40
0.0
  0
LTYPE
  5
13
330
5
100
AcDbSymbolTableRecord
100
AcDbLinetypeTableRecord
  2
BYLAYER
 70
     0
  3

 72
    65
 73
     0
 40
0.0
  0
LTYPE
  5
14
330
5
100
AcDbSymbolTableRecord
100
AcDbLinetypeTableRecord
  2
CONTINUOUS
 70
     0
  3
Solid line
 72
    65
 73
     0
 40
0.0
  0
LTYPE
  5
21
330
5
100
AcDbSymbolTableRecord
100
AcDbLinetypeTableRecord
  2
DASHED
 70
     0
  3
__ __ __ __ __ __ __ __ __ __ __ __ __ __ __
 72
    65
 73
     2
 40
0.75
 49
0.5
 74
     0
 49
-0.25
 74
     0
  0
LTYPE
  5
22
330
5
100
AcDbSymbolTableRecord
100
AcDbLinetypeTableRecord
  2
HIDDEN
 70
     0
  3
_ _ _ _ _ _ _ _ _ _ _ _ _ _ _ _ _ _ _ _ _ _ 
 72
    65
 73
     2
 40
0.25
 49
0.125
 74
     0
 49
-0.125
 74
     0
  0
LTYPE
  5
23
330
5
100
AcDbSymbolTableRecord
100
AcDbLinetypeTableRecord
  2
CENTER
 70
     0
  3
____ _ ____ _ ____ _ ____ _ ____ _ ____ _ __
 72
    65
 73
     4
 40
2.0
 49
1.25
 74
     0
 49
-0.25
 74
     0
 49
0.25
 74
     0
 49
-0.25
 74
     0
  0
LTYPE
  5
24
330
5
100
AcDbSymbolTableRecord
100
AcDbLinetypeTableRecord
  2
PHANTOM
 70
     0
  3
_____ _ _ _____ _ _ _____ _ _ _____ _ _ ____
 72
    65
 73
     6
 40
2.5
 49
1.25
 74
     0
 49
-0.25
 74
     0
 49
0.25
 74
     0
 49
-0.25
 74
     0
 49
0.25
 74
     0
 49
-0.25
 74
     0
  0
LTYPE
  5
25
330
5
100
AcDbSymbolTableRecord
100
AcDbLinetypeTableRecord
  2
DOT
 70
     0
  3
............................................
 72
    65
 73
     2
 40
0.25
 49
0.0
 74
     0
 49
-0.25
 74
     0
  0
LTYPE
  5
26
330
5
100
AcDbSymbolTableRecord
100
AcDbLinetypeTableRecord
  2
DASHDOT
 70
     0
  3
__ . __ . __ . __ . __ . __ . __ . __ . __ .
 72
    65
 73
     4
 40
1.0
 49
0.5
 74
     0
 49
-0.25
 74
     0
 49
0.0
 74
     0
 49
-0.25
 74
     0
  0
LTYPE
  5
27
330
5
100
AcDbSymbolTableRecord
100
AcDbLinetypeTableRecord
  2
BORDER
 70
     0
  3
__ __ . __ __ . __ __ . __ __ . __ __ . __ _
 72
    65
 73
     6
 40
1.75
 49
0.5
 74
     0
 49
-0.25
 74
     0
 49
0.5
 74
     0
 49
-0.25
 74
     0
 49
0.0
 74
     0
 49
-0.25
 74
     0
  0
LTYPE
  5
28
330
5
100
AcDbSymbolTableRecord
100
AcDbLinetypeTableRecord
  2
DIVIDE
 70
     0
  3
__ . . __ . . __ . . __ . . __ . . __ . . __
 72
    65
 73
     6
 40
1.25
 49
0.5
 74
     0
 49
-0.25
 74
     0
 49
0.0
 74
     0
 49
-0.25
 74
     0
 49
0.0
 74
     0
 49
-0.25
 74
     0
  0
LTYPE
  5
29
330
5
100
AcDbSymbolTableRecord
100
AcDbLinetypeTableRecord
  2
DOTS
 70
     0
  3
close
 72
    65
 73
     2
 40
0.1
 49
0.05
 74
     0
 49
-0.05
 74
     0
  0
ENDTAB
  0
TABLE
  2
LAYER
  5
2
330
0
100
AcDbSymbolTable
 70
    11
  0
LAYER
  5
E
330
2
100
AcDbSymbolTableRecord
100
AcDbLayerTableRecord
  2
0
 70
     0
 62
     7
  6
CONTINUOUS
370
    -3
390
6C
  0
LAYER
  5
1F
330
2
100
AcDbSymbolTableRecord
100
AcDbLayerTableRecord
  2
1
 70
     0
 62
     7
  6
CONTINUOUS
370
    -3
390
6C
  0
LAYER
  5
2A
330
2
100
AcDbSymbolTableRecord
100
AcDbLayerTableRecord
  2
2
 70
     0
 62
     7
  6
CONTINUOUS
370
    -3
390
6C
  0
LAYER
  5
2B
330
2
100
AcDbSymbolTableRecord
100
AcDbLayerTableRecord
  2
3
 70
     0
 62
     7
  6
CONTINUOUS
370
    -3
390
6C
  0
LAYER
  5
2C
330
2
100
AcDbSymbolTableRecord
100
AcDbLayerTableRecord
  2
4
 70
     0
 62
     7
  6
CONTINUOUS
370
    -3
390
6C
  0
LAYER
  5
2D
330
2
100
AcDbSymbolTableRecord
100
AcDbLayerTableRecord
  2
5
 70
     0
 62
     7
  6
CONTINUOUS
370
    -3
390
6C
  0
LAYER
  5
2E
330
2
100
AcDbSymbolTableRecord
100
AcDbLayerTableRecord
  2
6
 70
     0
 62
     7
  6
CONTINUOUS
370
    -3
390
6C
  0
LAYER
  5
2F
330
2
100
AcDbSymbolTableRecord
100
AcDbLayerTableRecord
  2
7
 70
     0
 62
     7
  6
CONTINUOUS
370
    -3
390
6C
  0
LAYER
  5
30
330
2
100
AcDbSymbolTableRecord
100
AcDbLayerTableRecord
  2
8
 70
     0
 62
     7
  6
CONTINUOUS
370
    -3
390
6C
  0
LAYER
  5
31
330
2
100
AcDbSymbolTableRecord
100
AcDbLayerTableRecord
  2
9
 70
     0
 62
     7
  6
CONTINUOUS
370
    -3
390
6C
  0
LAYER
  5
32
330
2
100
AcDbSymbolTableRecord
100
AcDbLayerTableRecord
  2
10
 70
     0
 62
     7
  6
CONTINUOUS
370
    -3
390
6C
  0
ENDTAB
  0
TABLE
  2
STYLE
  5
3
330
0
100
AcDbSymbolTable
 70
     2
  0
STYLE
  5
F
330
3
100
AcDbSymbolTableRecord
100
AcDbTextStyleTableRecord
  2
STANDARD
 70
     0
 40
0.0
 41
1.0
 50
0.0
 71
     0
 42
0.2
  3
txt
  4

  0
STYLE
  5
20
330
3
100
AcDbSymbolTableRecord
100
AcDbTextStyleTableRecord
  2
TXT
 70
     0
 40
0.0
 41
1.0
 50
0.0
 71
     0
 42
0.2
  3
txt
  4

  0
ENDTAB
  0
TABLE
  2
VIEW
  5
6
330
0
100
AcDbSymbolTable
 70
     0
  0
ENDTAB
  0
TABLE
  2
UCS
  5
7
330
0
100
AcDbSymbolTable
 70
     0
  0
ENDTAB
  0
TABLE
  2
APPID
  5
9
330
0
100
AcDbSymbolTable
 70
     2
  0
APPID
  5
10
330
9
100
AcDbSymbolTableRecord
100
AcDbRegAppTableRecord
  2
ACAD
 70
     0
  0
APPID
  5
92
330
9
100
AcDbSymbolTableRecord
100
AcDbRegAppTableRecord
  2
DCO15
 70
     0
  0
ENDTAB
  0
TABLE
  2
DIMSTYLE
  5
A
330
0
100
AcDbSymbolTable
 70
     6
100
AcDbDimStyleTable
 71
     0
  0
DIMSTYLE
105
68
330
A
100
AcDbSymbolTableRecord
100
AcDbDimStyleTableRecord
  2
STANDARD
 70
     0
340
F
  0
DIMSTYLE
105
81
330
A
100
AcDbSymbolTableRecord
100
AcDbDimStyleTableRecord
  2
DIMSTYLE_1
 70
     0
 41
0.1875
 78
     4
140
0.15625
271
     2
272
     2
284
     4
340
F
341
7A
342
7A
343
7A
344
7A
  0
DIMSTYLE
105
82
330
A
100
AcDbSymbolTableRecord
100
AcDbDimStyleTableRecord
  2
DIMSTYLE_2
 70
     0
 41
0.1875
 78
     4
140
0.15625
271
     3
272
     3
284
     4
340
F
341
7A
342
7A
343
7A
344
7A
  0
DIMSTYLE
105
83
330
A
100
AcDbSymbolTableRecord
100
AcDbDimStyleTableRecord
  2
DIMSTYLE_3
 70
     0
 41
0.1875
 78
     4
140
0.15625
271
     2
272
     2
284
     4
340
F
  0
DIMSTYLE
105
84
330
A
100
AcDbSymbolTableRecord
100
AcDbDimStyleTableRecord
  2
DIMSTYLE_4
 70
     0
 41
0.1875
 78
     4
140
0.15625
271
     2
272
     2
284
     4
340
F
341
7A
342
7A
343
7A
344
7A
  0
DIMSTYLE
105
85
330
A
100
AcDbSymbolTableRecord
100
AcDbDimStyleTableRecord
  2
DIMSTYLE_5
 70
     0
 41
0.1875
 78
     4
140
0.15625
179
     2
271
     3
272
     3
284
     4
340
F
341
7A
342
7A
  0
ENDTAB
  0
TABLE
  2
BLOCK_RECORD
  5
1
330
0
100
AcDbSymbolTable
 70
     1
  0
BLOCK_RECORD
  5
18
330
1
100
AcDbSymbolTableRecord
100
AcDbBlockTableRecord
  2
*MODEL_SPACE
340
71
  0
BLOCK_RECORD
  5
15
330
1
100
AcDbSymbolTableRecord
100
AcDbBlockTableRecord
  2
*PAPER_SPACE
340
72
  0
BLOCK_RECORD
  5
7A
330
1
100
AcDbSymbolTableRecord
100
AcDbBlockTableRecord
  2
_CLOSED
340
0
  0
ENDTAB
  0
ENDSEC
  0
SECTION
  2
BLOCKS
  0
BLOCK
  5
19
330
18
100
AcDbEntity
  8
0
100
AcDbBlockBegin
  2
*MODEL_SPACE
 70
     0
 10
0.0
 20
0.0
 30
0.0
  3
*MODEL_SPACE
  1

  0
ENDBLK
  5
1A
330
18
100
AcDbEntity
  8
0
100
AcDbBlockEnd
  0
BLOCK
  5
16
330
15
100
AcDbEntity
 67
     1
  8
0
100
AcDbBlockBegin
  2
*PAPER_SPACE
 70
     0
 10
0.0
 20
0.0
 30
0.0
  3
*PAPER_SPACE
  1

  0
ENDBLK
  5
17
330
15
100
AcDbEntity
 67
     1
  8
0
100
AcDbBlockEnd
  0
BLOCK
  5
7B
330
7A
100
AcDbEntity
  8
0
100
AcDbBlockBegin
  2
_CLOSED
 70
     0
 10
0.0
 20
0.0
 30
0.0
  3
_CLOSED
  1

  0
LINE
  5
7C
330
7A
100
AcDbEntity
  8
0
  6
ByBlock
 62
     0
100
AcDbLine
 10
0.0
 20
0.0
 30
0.0
 11
-1.0
 21
0.1666666667
 31
0.0
  0
LINE
  5
7D
330
7A
100
AcDbEntity
  8
0
  6
ByBlock
 62
     0
100
AcDbLine
 10
-1.0
 20
0.1666666667
 30
0.0
 11
-1.0
 21
-0.1666666667
 31
0.0
  0
LINE
  5
7E
330
7A
100
AcDbEntity
  8
0
  6
ByBlock
 62
     0
100
AcDbLine
 10
-1.0
 20
-0.1666666667
 30
0.0
 11
0.0
 21
0.0
 31
0.0
  0
LINE
  5
7F
330
7A
100
AcDbEntity
  8
0
  6
ByBlock
 62
     0
100
AcDbLine
 10
-1.0
 20
0.0
 30
0.0
 11
0.0
 21
0.0
 31
0.0
  0
ENDBLK
  5
80
330
7A
100
AcDbEntity
  8
0
 62
     0
100
AcDbBlockEnd
  0
ENDSEC
  0
SECTION
  2
ENTITIES
  0
LINE
  5
33
330
18
100
AcDbEntity
  8
1
 62
     7
100
AcDbLine
 10
2.933384
 20
0.468598
 30
0.0
 11
6.931064999999999
 21
0.468598
 31
0.0
  0
LINE
  5
34
330
18
100
AcDbEntity
  8
1
 62
     7
100
AcDbLine
 10
5.900983999999999
 20
2.194002999999999
 30
0.0
 11
6.588107
 21
2.070111999999999
 31
0.0
  0
LINE
  5
35
330
18
100
AcDbEntity
  8
1
 62
     7
100
AcDbLine
 10
3.027970999999999
 20
0.8600929999999999
 30
0.0
 11
6.43445
 21
0.8435979999999998
 31
0.0
  0
LINE
  5
36
330
18
100
AcDbEntity
  8
1
 62
     7
100
AcDbLine
 10
5.730605999999999
 20
2.381288
 30
0.0
 11
6.489405999999999
 21
0.935866
 31
0.0
  0
ARC
  5
37
330
18
100
AcDbEntity
  8
1
 62
     7
100
AcDbCircle
 10
1.612160999999999
 20
2.635118999999999
 30
0.0
 40
2.5
100
AcDbArc
 50
37.41825
 51
106.0535
  0
LINE
  5
38
330
18
100
AcDbEntity
  8
1
 62
     7
100
AcDbLine
 10
4.803824999999999
 20
3.185254
 30
0.0
 11
0.9117739999999999
 21
4.680105999999999
 31
0.0
  0
LINE
  5
39
330
18
100
AcDbEntity
  8
1
 62
     7
100
AcDbLine
 10
3.196763999999999
 20
1.264712
 30
0.0
 11
2.954312999999999
 21
1.085639
 31
0.0
  0
ARC
  5
3A
330
18
100
AcDbEntity
  8
1
 62
     7
100
AcDbCircle
 10
2.913726
 20
1.29586
 30
0.0
 40
0.125
100
AcDbArc
 50
312.7725
 51
327.6144
  0
ARC
  5
3B
330
18
100
AcDbEntity
  8
1
 62
     7
100
AcDbCircle
 10
3.028576999999999
 20
0.9850909999999998
 30
0.0
 40
0.125
100
AcDbArc
 50
126.4493
 51
269.7226
  0
ARC
  5
3C
330
18
100
AcDbEntity
  8
1
 62
     7
100
AcDbCircle
 10
1.548883999999999
 20
2.550222
 30
0.0
 40
2.5
100
AcDbArc
 50
234.9929
 51
303.6281
  0
LINE
  5
3D
330
18
100
AcDbEntity
  8
1
 62
     7
100
AcDbLine
 10
0.222253
 20
0.8435979999999998
 30
0.0
 11
2.457054
 21
0.854265
 31
0.0
  0
ARC
  5
3E
330
18
100
AcDbEntity
  8
1
 62
     7
100
AcDbCircle
 10
0.222253
 20
0.656098
 30
0.0
 40
0.1875
100
AcDbArc
 50
90.0
 51
234.9929
  0
LINE
  5
3F
330
18
100
AcDbEntity
  8
1
 62
     7
100
AcDbLine
 10
2.998611999999999
 20
1.204103
 30
0.0
 11
2.541344
 21
0.8875059999999999
 31
0.0
  0
ARC
  5
40
330
18
100
AcDbEntity
  8
1
 62
     7
100
AcDbCircle
 10
2.456458
 20
0.9792629999999999
 30
0.0
 40
0.125
100
AcDbArc
 50
270.2735
 51
312.7725
  0
ARC
  5
41
330
18
100
AcDbEntity
  8
1
 62
     7
100
AcDbCircle
 10
6.088601
 20
2.385946
 30
0.0
 40
0.268408
100
AcDbArc
 50
201.907511
 51
225.653047
  0
LINE
  5
42
330
18
100
AcDbEntity
  8
1
 62
     7
100
AcDbLine
 10
3.191688999999999
 20
1.660345999999999
 30
0.0
 11
4.360827999999999
 21
3.115918999999999
 31
0.0
  0
LINE
  5
43
330
18
100
AcDbEntity
  8
1
 62
     7
100
AcDbLine
 10
4.599294999999999
 20
2.866099999999999
 30
0.0
 11
3.501627999999999
 21
1.485037
 31
0.0
  0
LINE
  5
44
330
18
100
AcDbEntity
  8
1
 62
     7
100
AcDbLine
 10
3.21364
 20
1.278785999999999
 30
0.0
 11
3.479680999999999
 21
1.465606999999999
 31
0.0
  0
LINE
  5
45
330
18
100
AcDbEntity
  8
1
 62
     7
100
AcDbLine
 10
3.019283999999999
 20
1.228907999999999
 30
0.0
 11
3.179475999999999
 21
1.644159999999999
 31
0.0
  0
ARC
  5
46
330
18
100
AcDbEntity
  8
1
 62
     7
100
AcDbCircle
 10
3.285033999999999
 20
1.577207999999999
 30
0.0
 40
0.125
100
AcDbArc
 50
138.3099
 51
147.6144
  0
ARC
  5
47
330
18
100
AcDbEntity
  8
1
 62
     7
100
AcDbCircle
 10
3.284951999999999
 20
1.176123999999999
 30
0.0
 40
0.125
100
AcDbArc
 50
124.7848
 51
134.87
  0
ARC
  5
48
330
18
100
AcDbEntity
  8
1
 62
     7
100
AcDbCircle
 10
3.408369
 20
1.568269
 30
0.0
 40
0.125
100
AcDbArc
 50
304.7848
 51
318.2514
  0
LINE
  5
49
330
18
100
AcDbEntity
  8
1
 62
     7
100
AcDbLine
 10
3.597712999999999
 20
4.154190999999999
 30
0.0
 11
5.175754
 21
3.453549999999999
 31
0.0
  0
ARC
  5
4A
330
18
100
AcDbEntity
  8
1
 62
     7
100
AcDbCircle
 10
4.473523
 20
2.984769
 30
0.0
 40
0.172918
100
AcDbArc
 50
316.6645
 51
130.6718
  0
LINE
  5
4B
330
18
100
AcDbEntity
  8
1
 62
     7
100
AcDbLine
 10
5.175754
 20
3.453549999999999
 30
0.0
 11
5.715432999999999
 21
2.947883
 31
0.0
  0
LINE
  5
4C
330
18
100
AcDbEntity
  8
1
 62
     7
100
AcDbLine
 10
4.815755
 20
2.835143
 30
0.0
 11
4.809447
 21
2.816774999999999
 31
0.0
  0
ARC
  5
4D
330
18
100
AcDbEntity
  8
1
 62
     7
100
AcDbCircle
 10
4.742924999999999
 20
3.007919999999999
 30
0.0
 40
0.1875
100
AcDbArc
 50
292.8567
 51
71.04635
  0
LINE
  5
4E
330
18
100
AcDbEntity
  8
1
 62
     7
100
AcDbLine
 10
5.791892999999999
 20
2.801454
 30
0.0
 11
5.839574999999999
 21
2.2858
 31
0.0
  0
LINE
  5
4F
330
18
100
AcDbEntity
  8
1
 62
     7
100
AcDbLine
 10
5.730605999999999
 20
2.381288
 30
0.0
 11
5.546832
 21
2.716781999999999
 31
0.0
  0
LINE
  5
50
330
18
100
AcDbEntity
  8
1
 62
     7
100
AcDbLine
 10
4.809447
 20
2.816774999999999
 30
0.0
 11
5.339818
 21
2.802713
 31
0.0
  0
ARC
  5
51
330
18
100
AcDbEntity
  8
1
 62
     7
100
AcDbCircle
 10
5.325347999999999
 20
2.475531999999999
 30
0.0
 40
0.3275
100
AcDbArc
 50
47.44593999999999
 51
87.46779000000001
  0
ARC
  5
52
330
18
100
AcDbEntity
  8
1
 62
     7
100
AcDbCircle
 10
5.544499
 20
2.765450999999999
 30
0.0
 40
0.25
100
AcDbArc
 50
8.280128999999998
 51
46.86355999999999
  0
ARC
  5
53
330
18
100
AcDbEntity
  8
1
 62
     7
100
AcDbCircle
 10
0.9726749999999999
 20
4.857441
 30
0.0
 40
0.1875
100
AcDbArc
 50
106.0535
 51
251.0464
  0
LINE
  5
54
330
18
100
AcDbEntity
  8
1
 62
     7
100
AcDbLine
 10
6.908574999999999
 20
1.215916999999999
 30
0.0
 11
6.982363
 21
1.079692
 31
0.0
  0
ARC
  5
55
330
18
100
AcDbEntity
  8
1
 62
     7
100
AcDbCircle
 10
6.931064999999999
 20
0.9685979999999998
 30
0.0
 40
0.5
100
AcDbArc
 50
270.0
 51
28.36905
  0
LINE
  5
56
330
18
100
AcDbEntity
  8
1
 62
     7
100
AcDbLine
 10
6.504812999999999
 20
1.079729999999999
 30
0.0
 11
6.569499
 21
0.9580350000000001
 31
0.0
  0
LINE
  5
57
330
18
100
AcDbEntity
  8
1
 62
     7
100
AcDbLine
 10
6.654221999999999
 20
0.9328459999999999
 30
0.0
 11
6.957175
 21
0.994968
 31
0.0
  0
ARC
  5
58
330
18
100
AcDbEntity
  8
1
 62
     7
100
AcDbCircle
 10
6.927407999999999
 20
1.049924
 30
0.0
 40
0.0625
100
AcDbArc
 50
298.4429
 51
28.44293
  0
ARC
  5
59
330
18
100
AcDbEntity
  8
1
 62
     7
100
AcDbCircle
 10
6.624455
 20
0.9878020000000001
 30
0.0
 40
0.0625
100
AcDbArc
 50
208.4429
 51
298.4429
  0
ARC
  5
5A
330
18
100
AcDbEntity
  8
1
 62
     7
100
AcDbCircle
 10
6.43445
 20
0.9060979999999998
 30
0.0
 40
0.0625
100
AcDbArc
 50
270.0
 51
28.44293
  0
LINE
  5
5B
330
18
100
AcDbEntity
  8
1
 62
     7
100
AcDbLine
 10
7.213095
 20
1.440323
 30
0.0
 11
7.371017999999999
 21
1.206172
 31
0.0
  0
LINE
  5
5C
330
18
100
AcDbEntity
  8
1
 62
     7
100
AcDbLine
 10
7.213152
 20
1.440219
 30
0.0
 11
7.046197999999999
 21
1.403142
 31
0.0
  0
LINE
  5
5D
330
18
100
AcDbEntity
  8
1
 62
     7
100
AcDbLine
 10
6.915166
 20
1.285270999999999
 30
0.0
 11
6.976566
 21
1.360287999999999
 31
0.0
  0
ARC
  5
5E
330
18
100
AcDbEntity
  8
1
 62
     7
100
AcDbCircle
 10
6.963530999999999
 20
1.245684999999999
 30
0.0
 40
0.0625
100
AcDbArc
 50
140.7
 51
208.4429
  0
ARC
  5
5F
330
18
100
AcDbEntity
  8
1
 62
     7
100
AcDbCircle
 10
6.46769
 20
1.584829
 30
0.0
 40
0.5
100
AcDbArc
 50
28.369046
 51
76.06420899999999
  0
ARC
  5
60
330
18
100
AcDbEntity
  8
1
 62
     7
100
AcDbCircle
 10
7.073297
 20
1.281114999999999
 30
0.0
 40
0.125
100
AcDbArc
 50
102.520694
 51
140.700155
  0
LINE
  5
61
330
18
100
AcDbEntity
  8
1
  6
Continuous
 62
     7
100
AcDbLine
 10
6.937624
 20
1.766882
 30
0.0
 11
6.676416999999999
 21
1.663822
 31
0.0
  0
LINE
  5
62
330
18
100
AcDbEntity
  8
1
  6
Continuous
 62
     7
100
AcDbLine
 10
6.616544
 20
1.614192
 30
0.0
 11
6.512037999999999
 21
1.448369
 31
0.0
  0
ARC
  5
63
330
18
100
AcDbEntity
  8
1
  6
Continuous
 62
     7
100
AcDbCircle
 10
6.722294999999999
 20
1.547545
 30
0.0
 40
0.125
100
AcDbArc
 50
111.53195
 51
147.77967
  0
LINE
  5
64
330
18
100
AcDbEntity
  8
1
  6
Continuous
 62
     7
100
AcDbLine
 10
6.907642999999999
 20
1.822402999999999
 30
0.0
 11
6.937624
 21
1.766882
 31
0.0
  0
LINE
  5
65
330
18
100
AcDbEntity
  8
1
  6
Continuous
 62
     7
100
AcDbLine
 10
6.492795
 20
1.383056999999999
 30
0.0
 11
6.490196
 21
1.139734999999999
 31
0.0
  0
ARC
  5
66
330
18
100
AcDbEntity
  8
1
  6
Continuous
 62
     7
100
AcDbCircle
 10
6.617788
 20
1.381721999999999
 30
0.0
 40
0.125
100
AcDbArc
 50
147.77967
 51
179.387927
  0
ARC
  5
67
330
18
100
AcDbEntity
  8
1
  6
Continuous
 62
     7
100
AcDbCircle
 10
6.615188999999999
 20
1.1384
 30
0.0
 40
0.125
100
AcDbArc
 50
179.387927
 51
207.992596
  0
LWPOLYLINE
  5
8D
330
18
100
AcDbEntity
  8
0
 62
     6
100
AcDbPolyline
 90
        6
 70
     0
 43
0.0
 10
2.836213241805015
 20
4.545318875998578
 10
2.746971439470327
 20
4.316296372089681
 42
0.3178372451957654
 10
2.782779194932766
 20
4.17241534036223
 42
0.1715728752538373
 10
2.982184413182488
 20
4.094714325100341
 42
0.3178372451957713
 10
3.105900832319778
 20
4.176434544618253
 10
3.195142634654468
 20
4.40545704852715
  0
LWPOLYLINE
  5
8E
330
18
100
AcDbEntity
  8
0
 62
     6
100
AcDbPolyline
 90
        6
 70
     0
 43
0.0
 10
2.255964736432834
 20
4.771420772264725
 10
2.355113168677198
 20
4.548483589829488
 10
2.277600456009231
 20
4.349561615199124
 10
2.278796887318726
 20
4.349095409107553
 10
2.356309599986695
 20
4.548017383737917
 10
2.578959830528484
 20
4.645561243832426
  0
LWPOLYLINE
  5
8F
330
18
100
AcDbEntity
  8
0
 62
     6
100
AcDbPolyline
 90
        8
 70
     1
 43
0.0
 10
1.629985498613899
 20
4.80724994006155
 10
1.63045170470547
 20
4.808446371371047
 10
1.868958845945679
 20
4.715508748252418
 42
0.9999999999999998
 10
1.93888975968139
 20
4.894973444677144
 10
1.699603497781759
 20
4.988214662991428
 10
1.559741670310331
 20
4.629285270141975
 10
1.799027932209963
 20
4.536044051827693
 42
1.006733930650412
 10
1.868492639854106
 20
4.714312316942921
  0
ENDSEC
  0
SECTION
  2
OBJECTS
  0
DICTIONARY
  5
C
330
0
100
AcDbDictionary
281
     1
  3
ACAD_COLOR
350
6E
  3
ACAD_GROUP
350
D
  3
ACAD_LAYOUT
350
6F
  3
ACAD_MATERIAL
350
6D
  3
ACAD_MLINESTYLE
350
1B
  3
ACAD_PLOTSETTINGS
350
70
  3
ACAD_PLOTSTYLENAME
350
6B
  3
ACAD_TABLESTYLE
350
99
  3
AcDbVariableDictionary
350
9E
  3
ASE_INDEX_DICTIONARY
350
91
  0
DICTIONARY
  5
6E
102
{ACAD_REACTORS
330
C
102
}
330
C
100
AcDbDictionary
281
     1
  0
DICTIONARY
  5
D
102
{ACAD_REACTORS
330
C
102
}
330
C
100
AcDbDictionary
281
     1
  0
DICTIONARY
  5
6F
102
{ACAD_REACTORS
330
C
102
}
330
C
100
AcDbDictionary
281
     1
  3
Layout1
350
72
  3
Model
350
71
  0
DICTIONARY
  5
6D
102
{ACAD_REACTORS
330
C
102
}
330
C
100
AcDbDictionary
281
     1
  0
DICTIONARY
  5
1B
102
{ACAD_REACTORS
330
C
102
}
330
C
100
AcDbDictionary
281
     1
  3
STANDARD
350
1C
  0
DICTIONARY
  5
70
102
{ACAD_REACTORS
330
C
102
}
330
C
100
AcDbDictionary
281
     1
  0
ACDBDICTIONARYWDFLT
  5
6B
102
{ACAD_REACTORS
330
C
102
}
330
C
100
AcDbDictionary
281
     1
  3
Normal
350
6C
100
AcDbDictionaryWithDefault
340
6C
  0
DICTIONARY
  5
99
102
{ACAD_REACTORS
330
C
102
}
330
C
100
AcDbDictionary
281
     1
  3
Standard
350
9A
  0
DICTIONARY
  5
9E
102
{ACAD_REACTORS
330
C
102
}
330
C
100
AcDbDictionary
281
     1
  3
CTABLESTYLE
350
9F
  0
DICTIONARY
  5
91
102
{ACAD_REACTORS
330
C
102
}
330
C
100
AcDbDictionary
281
     1
  3
ASEBlockHierarchyIndexRecord
350
93
1001
DCO15
1040
1576322461.721
  0
LAYOUT
  5
72
102
{ACAD_REACTORS
330
6F
102
}
330
6F
100
AcDbPlotSettings
  1

  2
PDFCreator
  4

  6

 40
0.0
 41
0.0
 42
0.0
 43
0.0
 44
0.0
 45
0.0
 46
0.0
 47
0.0
 48
0.0
 49
0.0
140
0.0
141
0.0
142
1.0
143
1.0
 70
   688
 72
     0
 73
     0
 74
     5
  7

 75
    16
147
1.0
 76
     0
 77
     2
 78
   300
148
0.0
149
0.0
100
AcDbLayout
  1
Layout1
 70
     1
 71
     1
 10
0.0
 20
0.0
 11
12.0
 21
9.0
 12
0.0
 22
0.0
 32
0.0
 14
1.000000000000000E+20
 24
1.000000000000000E+20
 34
1.000000000000000E+20
 15
-1.000000000000000E+20
 25
-1.000000000000000E+20
 35
-1.000000000000000E+20
146
0.0
 13
0.0
 23
0.0
 33
0.0
 16
1.0
 26
0.0
 36
0.0
 17
0.0
 27
1.0
 37
0.0
 76
     0
330
15
  0
LAYOUT
  5
71
102
{ACAD_REACTORS
330
6F
102
}
330
6F
100
AcDbPlotSettings
  1

  2
PDFCreator
  4

  6

 40
0.0
 41
0.0
 42
0.0
 43
0.0
 44
0.0
 45
0.0
 46
0.0
 47
0.0
 48
0.0
 49
0.0
140
0.0
141
0.0
142
1.0
143
1.0
 70
  1712
 72
     0
 73
     0
 74
     0
  7

 75
     0
147
1.0
 76
     0
 77
     2
 78
   300
148
0.0
149
0.0
100
AcDbLayout
  1
Model
 70
     1
 71
     0
 10
0.0
 20
0.0
 11
12.0
 21
9.0
 12
0.0
 22
0.0
 32
0.0
 14
0.0
 24
0.0
 34
0.0
 15
0.0
 25
0.0
 35
0.0
146
0.0
 13
0.0
 23
0.0
 33
0.0
 16
1.0
 26
0.0
 36
0.0
 17
0.0
 27
1.0
 37
0.0
 76
     0
330
18
  0
MLINESTYLE
  5
1C
102
{ACAD_REACTORS
330
1B
102
}
330
1B
100
AcDbMlineStyle
  2
STANDARD
 70
     0
  3

 62
   256
 51
90.0
 52
90.0
 71
     2
 49
0.5
 62
   256
  6
BYLAYER
 49
-0.5
 62
   256
  6
BYLAYER
  0
ACDBPLACEHOLDER
  5
6C
102
{ACAD_REACTORS
330
6B
102
}
330
6B
  0
TABLESTYLE
  5
9A
102
{ACAD_REACTORS
330
99
102
}
330
99
100
AcDbTableStyle
  3
Standard
 70
     0
 71
     0
 40
0.06
 41
0.06
280
     0
281
     0
  7
STANDARD
140
0.18
170
     2
 62
     0
 63
     7
283
     0
274
    -2
284
     1
 64
     0
275
    -2
285
     1
 65
     0
276
    -2
286
     1
 66
     0
277
    -2
287
     1
 67
     0
278
    -2
288
     1
 68
     0
279
    -2
289
     1
 69
     0
  7
STANDARD
140
0.25
170
     5
 62
     0
 63
     7
283
     0
274
    -2
284
     1
 64
     0
275
    -2
285
     1
 65
     0
276
    -2
286
     1
 66
     0
277
    -2
287
     1
 67
     0
278
    -2
288
     1
 68
     0
279
    -2
289
     1
 69
     0
  7
STANDARD
140
0.18
170
     5
 62
     0
 63
     7
283
     0
274
    -2
284
     1
 64
     0
275
    -2
285
     1
 65
     0
276
    -2
286
     1
 66
     0
277
    -2
287
     1
 67
     0
278
    -2
288
     1
 68
     0
279
    -2
289
     1
 69
     0
  0
DICTIONARYVAR
  5
9F
102
{ACAD_REACTORS
330
9E
102
}
330
9E
100
DictionaryVariables
280
     0
  1
STANDARD
  0
XRECORD
  5
93
102
{ACAD_REACTORS
330
91
102
}
330
91
100
AcDbXrecord
280
     1
  0
ENDSEC
  0
EOF
