  0
SECTION
  2
HEADER
  9
$ACADVER
  1
AC1018
  9
$ACADMAINTVER
 70
    76
  9
$DWGCODEPAGE
  3
ANSI_1252
  9
$INSBASE
 10
0.0
 20
0.0
 30
0.0
  9
$EXTMIN
 10
-0.00000000372009
 20
-0.000000022102697
 30
0.0
  9
$EXTMAX
 10
8.750000011926548
 20
5.907472331432203
 30
0.0
  9
$LIMMIN
 10
0.0
 20
0.0
  9
$LIMMAX
 10
12.0
 20
9.0
  9
$ORTHOMODE
 70
     0
  9
$REGENMODE
 70
     1
  9
$FILLMODE
 70
     1
  9
$QTEXTMODE
 70
     0
  9
$MIRRTEXT
 70
     1
  9
$LTSCALE
 40
1.0
  9
$ATTMODE
 70
     1
  9
$TEXTSIZE
 40
0.2
  9
$TRACEWID
 40
0.05
  9
$TEXTSTYLE
  7
STANDARD
  9
$CLAYER
  8
0
  9
$CELTYPE
  6
BYLAYER
  9
$CECOLOR
 62
   256
  9
$CELTSCALE
 40
1.0
  9
$DISPSILH
 70
     0
  9
$DIMSCALE
 40
1.0
  9
$DIMASZ
 40
0.18
  9
$DIMEXO
 40
0.0625
  9
$DIMDLI
 40
0.38
  9
$DIMRND
 40
0.0
  9
$DIMDLE
 40
0.0
  9
$DIMEXE
 40
0.18
  9
$DIMTP
 40
0.0
  9
$DIMTM
 40
0.0
  9
$DIMTXT
 40
0.18
  9
$DIMCEN
 40
0.09
  9
$DIMTSZ
 40
0.0
  9
$DIMTOL
 70
     0
  9
$DIMLIM
 70
     0
  9
$DIMTIH
 70
     1
  9
$DIMTOH
 70
     1
  9
$DIMSE1
 70
     0
  9
$DIMSE2
 70
     0
  9
$DIMTAD
 70
     0
  9
$DIMZIN
 70
     0
  9
$DIMBLK
  1

  9
$DIMASO
 70
     1
  9
$DIMSHO
 70
     1
  9
$DIMPOST
  1

  9
$DIMAPOST
  1

  9
$DIMALT
 70
     0
  9
$DIMALTD
 70
     2
  9
$DIMALTF
 40
25.4
  9
$DIMLFAC
 40
1.0
  9
$DIMTOFL
 70
     0
  9
$DIMTVP
 40
0.0
  9
$DIMTIX
 70
     0
  9
$DIMSOXD
 70
     0
  9
$DIMSAH
 70
     0
  9
$DIMBLK1
  1

  9
$DIMBLK2
  1

  9
$DIMSTYLE
  2
STANDARD
  9
$DIMCLRD
 70
     0
  9
$DIMCLRE
 70
     0
  9
$DIMCLRT
 70
     0
  9
$DIMTFAC
 40
1.0
  9
$DIMGAP
 40
0.09
  9
$DIMJUST
 70
     0
  9
$DIMSD1
 70
     0
  9
$DIMSD2
 70
     0
  9
$DIMTOLJ
 70
     1
  9
$DIMTZIN
 70
     0
  9
$DIMALTZ
 70
     0
  9
$DIMALTTZ
 70
     0
  9
$DIMUPT
 70
     0
  9
$DIMDEC
 70
     4
  9
$DIMTDEC
 70
     4
  9
$DIMALTU
 70
     2
  9
$DIMALTTD
 70
     2
  9
$DIMTXSTY
  7
STANDARD
  9
$DIMAUNIT
 70
     0
  9
$DIMADEC
 70
     0
  9
$DIMALTRND
 40
0.0
  9
$DIMAZIN
 70
     0
  9
$DIMDSEP
 70
    46
  9
$DIMATFIT
 70
     3
  9
$DIMFRAC
 70
     0
  9
$DIMLDRBLK
  1

  9
$DIMLUNIT
 70
     2
  9
$DIMLWD
 70
    -2
  9
$DIMLWE
 70
    -2
  9
$DIMTMOVE
 70
     0
  9
$LUNITS
 70
     2
  9
$LUPREC
 70
     4
  9
$SKETCHINC
 40
0.1
  9
$FILLETRAD
 40
0.5
  9
$AUNITS
 70
     0
  9
$AUPREC
 70
     0
  9
$MENU
  1
.
  9
$ELEVATION
 40
0.0
  9
$PELEVATION
 40
0.0
  9
$THICKNESS
 40
0.0
  9
$LIMCHECK
 70
     0
  9
$CHAMFERA
 40
0.5
  9
$CHAMFERB
 40
0.5
  9
$CHAMFERC
 40
1.0
  9
$CHAMFERD
 40
0.0
  9
$SKPOLY
 70
     0
  9
$TDCREATE
 40
2453013.721426505
  9
$TDUCREATE
 40
2453013.971426505
  9
$TDUPDATE
 40
2454196.649783820
  9
$TDUUPDATE
 40
2454196.899783820
  9
$TDINDWG
 40
0.0226392940
  9
$TDUSRTIMER
 40
0.0226382060
  9
$USRTIMER
 70
     1
  9
$ANGBASE
 50
0.0
  9
$ANGDIR
 70
     0
  9
$PDMODE
 70
     0
  9
$PDSIZE
 40
0.0
  9
$PLINEWID
 40
0.0
  9
$SPLFRAME
 70
     0
  9
$SPLINETYPE
 70
     6
  9
$SPLINESEGS
 70
     8
  9
$HANDSEED
  5
288
  9
$SURFTAB1
 70
     6
  9
$SURFTAB2
 70
     6
  9
$SURFTYPE
 70
     6
  9
$SURFU
 70
     6
  9
$SURFV
 70
     6
  9
$UCSBASE
  2

  9
$UCSNAME
  2

  9
$UCSORG
 10
0.0
 20
0.0
 30
0.0
  9
$UCSXDIR
 10
1.0
 20
0.0
 30
0.0
  9
$UCSYDIR
 10
0.0
 20
1.0
 30
0.0
  9
$UCSORTHOREF
  2

  9
$UCSORTHOVIEW
 70
     0
  9
$UCSORGTOP
 10
0.0
 20
0.0
 30
0.0
  9
$UCSORGBOTTOM
 10
0.0
 20
0.0
 30
0.0
  9
$UCSORGLEFT
 10
0.0
 20
0.0
 30
0.0
  9
$UCSORGRIGHT
 10
0.0
 20
0.0
 30
0.0
  9
$UCSORGFRONT
 10
0.0
 20
0.0
 30
0.0
  9
$UCSORGBACK
 10
0.0
 20
0.0
 30
0.0
  9
$PUCSBASE
  2

  9
$PUCSNAME
  2

  9
$PUCSORG
 10
0.0
 20
0.0
 30
0.0
  9
$PUCSXDIR
 10
1.0
 20
0.0
 30
0.0
  9
$PUCSYDIR
 10
0.0
 20
1.0
 30
0.0
  9
$PUCSORTHOREF
  2

  9
$PUCSORTHOVIEW
 70
     0
  9
$PUCSORGTOP
 10
0.0
 20
0.0
 30
0.0
  9
$PUCSORGBOTTOM
 10
0.0
 20
0.0
 30
0.0
  9
$PUCSORGLEFT
 10
0.0
 20
0.0
 30
0.0
  9
$PUCSORGRIGHT
 10
0.0
 20
0.0
 30
0.0
  9
$PUCSORGFRONT
 10
0.0
 20
0.0
 30
0.0
  9
$PUCSORGBACK
 10
0.0
 20
0.0
 30
0.0
  9
$USERI1
 70
     0
  9
$USERI2
 70
     0
  9
$USERI3
 70
     0
  9
$USERI4
 70
     0
  9
$USERI5
 70
     0
  9
$USERR1
 40
0.0
  9
$USERR2
 40
0.0
  9
$USERR3
 40
0.0
  9
$USERR4
 40
0.0
  9
$USERR5
 40
0.0
  9
$WORLDVIEW
 70
     1
  9
$SHADEDGE
 70
     3
  9
$SHADEDIF
 70
    70
  9
$TILEMODE
 70
     1
  9
$MAXACTVP
 70
    64
  9
$PINSBASE
 10
0.0
 20
0.0
 30
0.0
  9
$PLIMCHECK
 70
     0
  9
$PEXTMIN
 10
0.0
 20
0.0
 30
0.0
  9
$PEXTMAX
 10
0.0
 20
0.0
 30
0.0
  9
$PLIMMIN
 10
0.0
 20
0.0
  9
$PLIMMAX
 10
12.0
 20
9.0
  9
$UNITMODE
 70
     0
  9
$VISRETAIN
 70
     1
  9
$PLINEGEN
 70
     0
  9
$PSLTSCALE
 70
     1
  9
$TREEDEPTH
 70
  3020
  9
$CMLSTYLE
  2
STANDARD
  9
$CMLJUST
 70
     0
  9
$CMLSCALE
 40
1.0
  9
$PROXYGRAPHICS
 70
     1
  9
$MEASUREMENT
 70
     0
  9
$CELWEIGHT
370
    -1
  9
$ENDCAPS
280
     0
  9
$JOINSTYLE
280
     0
  9
$LWDISPLAY
290
     0
  9
$INSUNITS
 70
     1
  9
$HYPERLINKBASE
  1

  9
$STYLESHEET
  1

  9
$XEDIT
290
     1
  9
$CEPSNTYPE
380
     0
  9
$PSTYLEMODE
290
     1
  9
$FINGERPRINTGUID
  2
{FDEAD576-A652-11D2-9A35-0060089B3A3F}
  9
$VERSIONGUID
  2
{3258BECF-5A30-4915-97FA-0F133004E768}
  9
$EXTNAMES
290
     1
  9
$PSVPSCALE
 40
0.0
  9
$OLESTARTUP
290
     0
  9
$SORTENTS
280
   127
  9
$INDEXCTL
280
     0
  9
$HIDETEXT
280
     1
  9
$XCLIPFRAME
290
     0
  9
$HALOGAP
280
     0
  9
$OBSCOLOR
 70
   257
  9
$OBSLTYPE
280
     0
  9
$INTERSECTIONDISPLAY
280
     0
  9
$INTERSECTIONCOLOR
 70
   257
  9
$DIMASSOC
280
     2
  9
$PROJECTNAME
  1

  0
ENDSEC
  0
SECTION
  2
CLASSES
  0
CLASS
  1
ACDBDICTIONARYWDFLT
  2
AcDbDictionaryWithDefault
  3
ObjectDBX Classes
 90
        0
 91
        1
280
     0
281
     0
  0
CLASS
  1
DICTIONARYVAR
  2
AcDbDictionaryVar
  3
ObjectDBX Classes
 90
        0
 91
        3
280
     0
281
     0
  0
CLASS
  1
SORTENTSTABLE
  2
AcDbSortentsTable
  3
ObjectDBX Classes
 90
        0
 91
        0
280
     0
281
     0
  0
CLASS
  1
TABLESTYLE
  2
AcDbTableStyle
  3
ObjectDBX Classes
 90
     2047
 91
        1
280
     0
281
     0
  0
ENDSEC
  0
SECTION
  2
TABLES
  0
TABLE
  2
VPORT
  5
8
330
0
100
AcDbSymbolTable
 70
     3
  0
VPORT
  5
287
330
8
100
AcDbSymbolTableRecord
100
AcDbViewportTableRecord
  2
*Active
 70
     0
 10
0.0
 20
0.0
 11
1.0
 21
1.0
 12
7.070480558814979
 22
3.372478974964481
 13
0.0
 23
0.0
 14
0.5
 24
0.5
 15
0.5
 25
0.5
 16
0.0
 26
0.0
 36
1.0
 17
0.0
 27
0.0
 37
0.0
 40
9.296503681365511
 41
1.536679536679536
 42
50.0
 43
0.0
 44
0.0
 50
0.0
 51
0.0
 71
     0
 72
   100
 73
     1
 74
     3
 75
     0
 76
     0
 77
     0
 78
     0
281
     0
 65
     1
110
0.0
120
0.0
130
0.0
111
1.0
121
0.0
131
0.0
112
0.0
122
1.0
132
0.0
 79
     0
146
0.0
  0
ENDTAB
  0
TABLE
  2
LTYPE
  5
5
330
0
100
AcDbSymbolTable
 70
     1
  0
LTYPE
  5
14
330
5
100
AcDbSymbolTableRecord
100
AcDbLinetypeTableRecord
  2
BYBLOCK
 70
     0
  3

 72
    65
 73
     0
 40
0.0
  0
LTYPE
  5
15
330
5
100
AcDbSymbolTableRecord
100
AcDbLinetypeTableRecord
  2
BYLAYER
 70
     0
  3

 72
    65
 73
     0
 40
0.0
  0
LTYPE
  5
16
330
5
100
AcDbSymbolTableRecord
100
AcDbLinetypeTableRecord
  2
CONTINUOUS
 70
     0
  3
Solid line
 72
    65
 73
     0
 40
0.0
  0
ENDTAB
  0
TABLE
  2
LAYER
  5
2
330
0
100
AcDbSymbolTable
 70
     1
  0
LAYER
  5
10
330
2
100
AcDbSymbolTableRecord
100
AcDbLayerTableRecord
  2
0
 70
     0
 62
     7
  6
CONTINUOUS
370
    -3
390
F
  0
ENDTAB
  0
TABLE
  2
STYLE
  5
3
330
0
100
AcDbSymbolTable
 70
     1
  0
STYLE
  5
11
330
3
100
AcDbSymbolTableRecord
100
AcDbTextStyleTableRecord
  2
STANDARD
 70
     0
 40
0.0
 41
1.0
 50
0.0
 71
     0
 42
0.2
  3
txt
  4

  0
ENDTAB
  0
TABLE
  2
VIEW
  5
6
330
0
100
AcDbSymbolTable
 70
     0
  0
ENDTAB
  0
TABLE
  2
UCS
  5
7
330
0
100
AcDbSymbolTable
 70
     0
  0
ENDTAB
  0
TABLE
  2
APPID
  5
9
330
0
100
AcDbSymbolTable
 70
     2
  0
APPID
  5
12
330
9
100
AcDbSymbolTableRecord
100
AcDbRegAppTableRecord
  2
ACAD
 70
     0
  0
APPID
  5
15E
330
9
100
AcDbSymbolTableRecord
100
AcDbRegAppTableRecord
  2
DCO15
 70
     0
  0
ENDTAB
  0
TABLE
  2
DIMSTYLE
  5
A
330
0
100
AcDbSymbolTable
 70
     1
100
AcDbDimStyleTable
 71
     0
  0
DIMSTYLE
105
27
330
A
100
AcDbSymbolTableRecord
100
AcDbDimStyleTableRecord
  2
STANDARD
 70
     0
340
11
  0
ENDTAB
  0
TABLE
  2
BLOCK_RECORD
  5
1
330
0
100
AcDbSymbolTable
 70
     0
  0
BLOCK_RECORD
  5
1F
102
{ACAD_XDICTIONARY
360
C5
102
}
330
1
100
AcDbSymbolTableRecord
100
AcDbBlockTableRecord
  2
*MODEL_SPACE
340
CD
  0
BLOCK_RECORD
  5
58
102
{ACAD_XDICTIONARY
360
C7
102
}
330
1
100
AcDbSymbolTableRecord
100
AcDbBlockTableRecord
  2
*PAPER_SPACE
340
CE
  0
ENDTAB
  0
ENDSEC
  0
SECTION
  2
BLOCKS
  0
BLOCK
  5
20
330
1F
100
AcDbEntity
  8
0
100
AcDbBlockBegin
  2
*MODEL_SPACE
 70
     0
 10
0.0
 20
0.0
 30
0.0
  3
*MODEL_SPACE
  1

  0
ENDBLK
  5
21
330
1F
100
AcDbEntity
  8
0
100
AcDbBlockEnd
  0
BLOCK
  5
5A
330
58
100
AcDbEntity
 67
     1
  8
0
100
AcDbBlockBegin
  2
*PAPER_SPACE
 70
     0
 10
0.0
 20
0.0
 30
0.0
  3
*PAPER_SPACE
  1

  0
ENDBLK
  5
5B
330
58
100
AcDbEntity
 67
     1
  8
0
100
AcDbBlockEnd
  0
ENDSEC
  0
SECTION
  2
ENTITIES
  0
CIRCLE
  5
7B
330
1F
100
AcDbEntity
  8
0
100
AcDbCircle
 10
2.124999996279909
 20
2.124999977897302
 30
0.0
 40
2.125
  0
CIRCLE
  5
A3
330
1F
100
AcDbEntity
  8
0
100
AcDbCircle
 10
2.124999996279909
 20
2.124999977897302
 30
0.0
 40
0.125
  0
CIRCLE
  5
11C
330
1F
100
AcDbEntity
  8
0
100
AcDbCircle
 10
6.625000011926548
 20
2.125000003722979
 30
0.0
 40
2.125
  0
ARC
  5
11D
330
1F
100
AcDbEntity
  8
0
100
AcDbCircle
 10
6.906815092387028
 20
2.929309459866742
 30
0.0
 40
1.985022999999999
100
AcDbArc
 50
190.5786089349225
 51
238.8164630543993
  0
ARC
  5
11E
330
1F
100
AcDbEntity
  8
0
100
AcDbCircle
 10
5.787540050171762
 20
1.96690429449943
 30
0.0
 40
1.985022999999999
100
AcDbArc
 50
310.5786089349225
 51
358.8164630543992
  0
ARC
  5
11F
330
1F
100
AcDbEntity
  8
0
100
AcDbCircle
 10
7.180644893220851
 20
1.478786256802764
 30
0.0
 40
1.985022999999999
100
AcDbArc
 50
70.61341769370722
 51
118.8164630543992
  0
ARC
  5
120
330
1F
100
AcDbEntity
  8
0
100
AcDbCircle
 10
8.156947715513885
 20
2.428687323980512
 30
0.0
 40
0.2500626723176925
100
AcDbArc
 50
272.7978859356793
 51
345.3721052166196
  0
ARC
  5
121
330
1F
100
AcDbEntity
  8
0
100
AcDbCircle
 10
7.808190307270912
 20
3.475116347644001
 30
0.0
 40
0.1277663768860705
100
AcDbArc
 50
284.2099702845024
 51
60.21772488226425
  0
ARC
  5
122
330
1F
100
AcDbEntity
  8
0
100
AcDbCircle
 10
7.644687588529224
 20
2.562320500818293
 30
0.0
 40
0.7794663578961668
100
AcDbArc
 50
345.3768665223784
 51
68.33049024815714
  0
LINE
  5
123
330
1F
100
AcDbEntity
  8
0
100
AcDbLine
 10
5.336032609982362
 20
2.368554446114773
 30
0.0
 11
5.604946002153461
 21
2.29284565386186
 31
0.0
  0
LINE
  5
124
330
1F
100
AcDbEntity
  8
0
100
AcDbLine
 10
5.15071026024606
 20
2.536351127452912
 30
0.0
 11
5.336032609982362
 21
2.368554446114773
 31
0.0
  0
ARC
  5
125
330
1F
100
AcDbEntity
  8
0
100
AcDbCircle
 10
6.094895895437863
 20
2.761989751111947
 30
0.0
 40
0.047
100
AcDbArc
 50
320.132632920793
 51
342.6891424537314
  0
ARC
  5
126
330
1F
100
AcDbEntity
  8
0
100
AcDbCircle
 10
6.860123670568963
 20
2.122900201699736
 30
0.0
 40
0.9499999999999989
100
AcDbArc
 50
140.1326329207927
 51
164.4942046970703
  0
LINE
  5
127
330
1F
100
AcDbEntity
  8
0
100
AcDbLine
 10
5.768915192941934
 20
2.473481954294426
 30
0.0
 11
5.944700423575386
 21
2.376869252695586
 31
0.0
  0
ARC
  5
128
330
1F
100
AcDbEntity
  8
0
100
AcDbCircle
 10
6.206562602719507
 20
3.24307723999562
 30
0.0
 40
0.030459962882501
100
AcDbArc
 50
249.3383792252031
 51
304.5860432037247
  0
ARC
  5
129
330
1F
100
AcDbEntity
  8
0
100
AcDbCircle
 10
6.251929811401177
 20
3.16696352543591
 30
0.0
 40
0.03125
100
AcDbArc
 50
118.8164630543994
 51
197.5535081036129
  0
ARC
  5
12A
330
1F
100
AcDbEntity
  8
0
100
AcDbCircle
 10
5.983776018532333
 20
3.082139555533221
 30
0.0
 40
0.25
100
AcDbArc
 50
336.1008718248389
 51
17.55350810361315
  0
LINE
  5
12B
330
1F
100
AcDbEntity
  8
0
100
AcDbLine
 10
6.139767003640445
 20
2.748004628707326
 30
0.0
 11
6.212341048494698
 21
2.98085763672091
 31
0.0
  0
ARC
  5
12C
330
1F
100
AcDbEntity
  8
0
100
AcDbCircle
 10
5.972275693867909
 20
3.0161748605453
 30
0.0
 40
0.4508343607993523
100
AcDbArc
 50
63.80669017114093
 51
111.6120209327726
  0
ARC
  5
12D
330
1F
100
AcDbEntity
  8
0
100
AcDbCircle
 10
5.983776018532333
 20
3.082139555533221
 30
0.0
 40
0.25
100
AcDbArc
 50
31.98839960285653
 51
137.7689966687571
  0
LINE
  5
12E
330
1F
100
AcDbEntity
  8
0
100
AcDbLine
 10
5.768915192941934
 20
2.473481954294426
 30
0.0
 11
5.604946002153461
 21
2.29284565386186
 31
0.0
  0
LINE
  5
12F
330
1F
100
AcDbEntity
  8
0
100
AcDbLine
 10
5.798665765286848
 20
3.250169892506614
 30
0.0
 11
5.15071026024606
 21
2.536351127452911
 31
0.0
  0
ARC
  5
130
330
1F
100
AcDbEntity
  8
0
100
AcDbCircle
 10
6.37154215608191
 20
3.809134119822595
 30
0.0
 40
0.0469
100
AcDbArc
 50
98.55864699999997
 51
158.8854979999998
  0
LINE
  5
131
330
1F
100
AcDbEntity
  8
0
100
AcDbLine
 10
6.171274468053033
 20
3.420713003061154
 30
0.0
 11
6.327790910131755
 21
3.826029044439447
 31
0.0
  0
ARC
  5
132
330
1F
100
AcDbEntity
  8
0
100
AcDbCircle
 10
7.180644893220851
 20
1.478786256802764
 30
0.0
 40
1.958022999999999
100
AcDbArc
 50
67.4189107217828
 51
118.8164630543992
  0
ARC
  5
133
330
1F
100
AcDbEntity
  8
0
100
AcDbCircle
 10
6.774821424766754
 20
1.801077898081045
 30
0.0
 40
2.094996727569259
100
AcDbArc
 50
58.4294598734955
 51
101.2930967097459
  0
ARC
  5
134
330
1F
100
AcDbEntity
  8
0
100
AcDbCircle
 10
6.122026375902609
 20
0.6464506001453763
 30
0.0
 40
0.2500620859027532
100
AcDbArc
 50
152.7977872826875
 51
225.3722038696117
  0
ARC
  5
135
330
1F
100
AcDbEntity
  8
0
100
AcDbCircle
 10
7.202763541125346
 20
0.4260258799834825
 30
0.0
 40
0.1283591378482868
100
AcDbArc
 50
164.9984127766959
 51
300.000000000003
  0
ARC
  5
136
330
1F
100
AcDbEntity
  8
0
100
AcDbCircle
 10
6.493886883705391
 20
1.023264409914014
 30
0.0
 40
0.7794663578961668
100
AcDbArc
 50
225.3768665223784
 51
308.3304902481571
  0
LINE
  5
137
330
1F
100
AcDbEntity
  8
0
100
AcDbLine
 10
7.480408047214487
 20
3.119501297260775
 30
0.0
 11
7.280385613748077
 21
2.924469864349211
 31
0.0
  0
LINE
  5
138
330
1F
100
AcDbEntity
  8
0
100
AcDbLine
 10
7.718385410792188
 20
3.196096819352366
 30
0.0
 11
7.480408047214487
 21
3.119501297260775
 31
0.0
  0
ARC
  5
139
330
1F
100
AcDbEntity
  8
0
100
AcDbCircle
 10
7.441701373359968
 20
2.265588761558402
 30
0.0
 40
0.047
100
AcDbArc
 50
200.1326329207929
 51
222.6891424537314
  0
ARC
  5
13A
330
1F
100
AcDbEntity
  8
0
100
AcDbCircle
 10
6.49509328266293
 20
1.915769755567486
 30
0.0
 40
0.9621781564613874
100
AcDbArc
 50
20.2890772256381
 51
44.33765499817739
  0
LINE
  5
13B
330
1F
100
AcDbEntity
  8
0
100
AcDbLine
 10
7.354836643374081
 20
2.692150229472134
 30
0.0
 11
7.183275408248271
 21
2.588222108374935
 31
0.0
  0
ARC
  5
13C
330
1F
100
AcDbEntity
  8
0
100
AcDbCircle
 10
7.804478960791394
 20
1.927498105318891
 30
0.0
 40
0.0323786932526271
100
AcDbArc
 50
131.1012806229258
 51
182.8231418060054
  0
ARC
  5
13D
330
1F
100
AcDbEntity
  8
0
100
AcDbCircle
 10
7.713901991809331
 20
1.927106513916439
 30
0.0
 40
0.03125
100
AcDbArc
 50
358.8164630543993
 51
77.55350810361303
  0
ARC
  5
13E
330
1F
100
AcDbEntity
  8
0
100
AcDbCircle
 10
7.774519175458176
 20
2.201746495613354
 30
0.0
 40
0.25
100
AcDbArc
 50
216.1008718248389
 51
257.553508103613
  0
LINE
  5
13F
330
1F
100
AcDbEntity
  8
0
100
AcDbLine
 10
7.407154347981242
 20
2.233721803161316
 30
0.0
 11
7.572523945841499
 21
2.05444433265535
 31
0.0
  0
ARC
  5
140
330
1F
100
AcDbEntity
  8
0
100
AcDbCircle
 10
7.747895240532216
 20
2.235536975390119
 30
0.0
 40
0.4250460176630898
100
AcDbArc
 50
301.6636755005253
 51
352.3457103762867
  0
ARC
  5
141
330
1F
100
AcDbEntity
  8
0
100
AcDbCircle
 10
7.774519175458176
 20
2.201746495613354
 30
0.0
 40
0.25
100
AcDbArc
 50
271.9883996028563
 51
17.76899666875714
  0
LINE
  5
142
330
1F
100
AcDbEntity
  8
0
100
AcDbLine
 10
7.354836643374081
 20
2.692150229472134
 30
0.0
 11
7.280385613748077
 21
2.924469864349211
 31
0.0
  0
LINE
  5
143
330
1F
100
AcDbEntity
  8
0
100
AcDbLine
 10
8.012592842506338
 20
2.278041508938217
 30
0.0
 11
7.718385410792187
 21
3.196096819352366
 31
0.0
  0
ARC
  5
144
330
1F
100
AcDbEntity
  8
0
100
AcDbCircle
 10
8.210231867771186
 20
1.502433887623362
 30
0.0
 40
0.0469
100
AcDbArc
 50
338.5586469999998
 51
38.88549799999994
  0
LINE
  5
145
330
1F
100
AcDbEntity
  8
0
100
AcDbLine
 10
7.971015558936676
 20
1.87376157455924
 30
0.0
 11
8.24673892465948
 21
1.531876115754991
 31
0.0
  0
ARC
  5
146
330
1F
100
AcDbEntity
  8
0
100
AcDbCircle
 10
5.787540050171762
 20
1.96690429449943
 30
0.0
 40
1.958022999999999
100
AcDbArc
 50
307.4189107217827
 51
358.8164630543992
  0
ARC
  5
147
330
1F
100
AcDbEntity
  8
0
100
AcDbCircle
 10
6.269564533173184
 20
2.157211906993451
 30
0.0
 40
2.094996727569259
100
AcDbArc
 50
298.4294598734953
 51
341.2930967097458
  0
ARC
  5
148
330
1F
100
AcDbEntity
  8
0
100
AcDbCircle
 10
5.596025485689982
 20
3.299862651742335
 30
0.0
 40
0.250062085902757
100
AcDbArc
 50
32.79778728268843
 51
105.3722038696113
  0
ARC
  5
149
330
1F
100
AcDbEntity
  8
0
100
AcDbCircle
 10
5.736425563545028
 20
2.789415100436631
 30
0.0
 40
0.7794663578961668
100
AcDbArc
 50
105.3768665223784
 51
188.330490248157
  0
ARC
  5
14A
330
1F
100
AcDbEntity
  8
0
100
AcDbCircle
 10
6.830614077839706
 20
2.41671020609444
 30
0.0
 40
2.094996727569259
100
AcDbArc
 50
178.4294598734954
 51
221.2930967097459
  0
ARC
  5
14B
330
1F
100
AcDbEntity
  8
0
100
AcDbCircle
 10
4.864763495796336
 20
2.474129171926415
 30
0.0
 40
0.1283591378482874
100
AcDbArc
 50
44.99841277669588
 51
180.0000000000028
  0
ARC
  5
14C
330
1F
100
AcDbEntity
  8
0
100
AcDbCircle
 10
6.338402766981812
 20
1.347421498498587
 30
0.0
 40
0.047
100
AcDbArc
 50
80.13263292079306
 51
102.6891424537313
  0
ARC
  5
14D
330
1F
100
AcDbEntity
  8
0
100
AcDbCircle
 10
5.858814372573427
 20
1.198225220168509
 30
0.0
 40
0.0385781243662552
100
AcDbArc
 50
15.48730727093044
 51
58.43711515799986
  0
ARC
  5
14E
330
1F
100
AcDbEntity
  8
0
100
AcDbCircle
 10
5.909168232569136
 20
1.280929971816586
 30
0.0
 40
0.03125
100
AcDbArc
 50
238.8164630543994
 51
317.553508103613
  0
ARC
  5
14F
330
1F
100
AcDbEntity
  8
0
100
AcDbCircle
 10
6.906815092387028
 20
2.929309459866742
 30
0.0
 40
1.958022999999999
100
AcDbArc
 50
187.4189107217826
 51
238.8164630543993
  0
ARC
  5
150
330
1F
100
AcDbEntity
  8
0
100
AcDbCircle
 10
6.116704841789134
 20
1.091113960022364
 30
0.0
 40
0.2499999999999998
100
AcDbArc
 50
151.9883996028565
 51
257.7689966687571
  0
ARC
  5
151
330
1F
100
AcDbEntity
  8
0
100
AcDbCircle
 10
6.116704841789135
 20
1.091113960022364
 30
0.0
 40
0.25
100
AcDbArc
 50
96.10087182483912
 51
137.5535081036131
  0
LINE
  5
152
330
1F
100
AcDbEntity
  8
0
100
AcDbLine
 10
6.328078684157958
 20
1.393273579300294
 30
0.0
 11
6.090135041443446
 21
1.339698041792676
 31
0.0
  0
ARC
  5
153
330
1F
100
AcDbEntity
  8
0
100
AcDbCircle
 10
6.50925712364455
 20
2.32967992116307
 30
0.0
 40
0.9500069308114074
100
AcDbArc
 50
260.1326775215926
 51
284.4940547022226
  0
LINE
  5
154
330
1F
100
AcDbEntity
  8
0
100
AcDbLine
 10
6.75124819946363
 20
1.209367827402376
 30
0.0
 11
6.747024423988774
 21
1.409908275874562
 31
0.0
  0
LINE
  5
155
330
1F
100
AcDbEntity
  8
0
100
AcDbLine
 10
6.751248199463629
 20
1.209367827402377
 30
0.0
 11
6.989668419878105
 21
1.157684492957865
 31
0.0
  0
LINE
  5
156
330
1F
100
AcDbEntity
  8
0
100
AcDbLine
 10
7.058559378582794
 20
0.88694426779339
 30
0.0
 11
6.989668419878105
 21
1.157684492957865
 31
0.0
  0
LINE
  5
157
330
1F
100
AcDbEntity
  8
0
100
AcDbLine
 10
7.005904364741395
 20
0.6425520643636591
 30
0.0
 11
7.058559378582794
 21
0.88694426779339
 31
0.0
  0
LINE
  5
158
330
1F
100
AcDbEntity
  8
0
100
AcDbLine
 10
6.063741427986458
 20
0.8467886097241041
 30
0.0
 11
7.005904364741395
 21
0.6425520643636591
 31
0.0
  0
ARC
  5
159
330
1F
100
AcDbEntity
  8
0
100
AcDbCircle
 10
5.293226011926549
 20
1.063432003722983
 30
0.0
 40
0.0469000000000026
100
AcDbArc
 50
218.5586469999971
 51
278.885497999999
  0
ARC
  5
15A
330
1F
100
AcDbEntity
  8
0
100
AcDbCircle
 10
6.165597930915097
 20
1.10251977118075
 30
0.0
 40
0.4330609816503504
100
AcDbArc
 50
182.3583553357094
 51
232.1077957596887
  0
LINE
  5
15B
330
1F
100
AcDbEntity
  8
0
100
AcDbLine
 10
5.732903750644672
 20
1.084699552661622
 30
0.0
 11
5.300470200988409
 21
1.017094850974499
 31
0.0
  0
LINE
  5
235
330
1F
100
AcDbEntity
  8
0
100
AcDbLine
 10
3.900724931644656
 20
5.907472331432203
 30
0.0
 11
3.900724931644656
 21
5.757472331432203
 31
0.0
  0
LINE
  5
236
330
1F
100
AcDbEntity
  8
0
100
AcDbLine
 10
3.500725259117981
 20
5.650292003958878
 30
0.0
 11
3.425724931644656
 21
5.780196331432203
 31
0.0
  0
ARC
  5
237
330
1F
100
AcDbEntity
  8
0
100
AcDbCircle
 10
4.292434355382098
 20
4.858580399062545
 30
0.0
 40
1.119647515263118
100
AcDbArc
 50
110.4781811728133
 51
134.9999092256163
  0
LINE
  5
238
330
1F
100
AcDbEntity
  8
0
100
AcDbLine
 10
4.300724757931837
 20
5.650292830246058
 30
0.0
 11
4.375724931644656
 21
5.780196331432203
 31
0.0
  0
ARC
  5
239
330
1F
100
AcDbEntity
  8
0
100
AcDbCircle
 10
4.190507476342943
 20
4.675971775029879
 30
0.0
 40
1.119650560090223
100
AcDbArc
 50
80.47811385928509
 51
104.999769857297
  0
LINE
  5
23A
330
1F
100
AcDbEntity
  8
0
100
AcDbLine
 10
4.593544604171333
 20
5.357472003958879
 30
0.0
 11
4.723448931644656
 21
5.432472331432203
 31
0.0
  0
LINE
  5
23B
330
1F
100
AcDbEntity
  8
0
100
AcDbLine
 10
4.593544931644657
 20
5.357472331432203
 30
0.0
 11
4.593544931644657
 21
5.357472331432203
 31
0.0
  0
ARC
  5
23C
330
1F
100
AcDbEntity
  8
0
100
AcDbCircle
 10
3.801845931644657
 20
4.565773331432204
 30
0.0
 40
1.119630999999998
100
AcDbArc
 50
20.47791599999996
 51
45.00000000000002
  0
LINE
  5
23D
330
1F
100
AcDbEntity
  8
0
100
AcDbLine
 10
4.700724430458512
 20
4.957472157719384
 30
0.0
 11
4.850724205272817
 21
4.957472122944008
 31
0.0
  0
LINE
  5
23E
330
1F
100
AcDbEntity
  8
0
100
AcDbLine
 10
4.593545430458512
 20
4.557472505145023
 30
0.0
 11
4.723448557840112
 21
4.482472298699009
 31
0.0
  0
ARC
  5
23F
330
1F
100
AcDbEntity
  8
0
100
AcDbCircle
 10
3.619243931644656
 20
4.667690331432203
 30
0.0
 40
1.119631
100
AcDbArc
 50
350.477916
 51
15.0
  0
ARC
  5
240
330
1F
100
AcDbEntity
  8
0
100
AcDbCircle
 10
3.512066589478347
 20
4.847253690712607
 30
0.0
 40
1.119629232825204
100
AcDbArc
 50
320.4778729326549
 51
345.0000097132475
  0
CIRCLE
  5
241
330
1F
100
AcDbEntity
  8
0
100
AcDbCircle
 10
4.250724931644656
 20
4.957472331432203
 30
0.0
 40
0.07
  0
CIRCLE
  5
242
330
1F
100
AcDbEntity
  8
0
100
AcDbCircle
 10
3.900724931644656
 20
4.957472331432203
 30
0.0
 40
0.07
  0
LINE
  5
243
330
1F
100
AcDbEntity
  8
0
100
AcDbLine
 10
2.950724931644656
 20
4.957472331432203
 30
0.0
 11
3.100724931644657
 21
4.957472331432203
 31
0.0
  0
ARC
  5
244
330
1F
100
AcDbEntity
  8
0
100
AcDbCircle
 10
4.182217575435874
 20
5.247253641384165
 30
0.0
 40
1.119642597515829
100
AcDbArc
 50
170.4779797447914
 51
194.9998136221719
  0
LINE
  5
245
330
1F
100
AcDbEntity
  8
0
100
AcDbLine
 10
3.207904432830801
 20
5.357472157719383
 30
0.0
 11
3.078001305449201
 21
5.432472364165397
 31
0.0
  0
LINE
  5
246
330
1F
100
AcDbEntity
  8
0
100
AcDbLine
 10
3.500725105357477
 20
4.264651832618347
 30
0.0
 11
3.425725125515438
 21
4.134748667226737
 31
0.0
  0
LINE
  5
247
330
1F
100
AcDbEntity
  8
0
100
AcDbLine
 10
3.207904931644656
 20
4.557472331432203
 30
0.0
 11
3.078001096961005
 21
4.482472090537235
 31
0.0
  0
ARC
  5
248
330
1F
100
AcDbEntity
  8
0
100
AcDbCircle
 10
3.790506931644657
 20
5.346132331432204
 30
0.0
 40
1.119631
100
AcDbArc
 50
230.477916
 51
255.0
  0
ARC
  5
249
330
1F
100
AcDbEntity
  8
0
100
AcDbCircle
 10
3.999625993078414
 20
5.349186328381037
 30
0.0
 40
1.11965766736199
100
AcDbArc
 50
200.4782369714226
 51
224.9997443752628
  0
CIRCLE
  5
24A
330
1F
100
AcDbEntity
  8
0
100
AcDbCircle
 10
3.550724931644656
 20
4.957472331432203
 30
0.0
 40
0.07
  0
ARC
  5
24B
330
1F
100
AcDbEntity
  8
0
100
AcDbCircle
 10
3.610943621692695
 20
5.238964975223413
 30
0.0
 40
1.119642597515821
100
AcDbArc
 50
260.4779915028605
 51
284.999813622172
  0
ARC
  5
24C
330
1F
100
AcDbEntity
  8
0
100
AcDbCircle
 10
3.509025931644655
 20
5.056351331432203
 30
0.0
 40
1.119631
100
AcDbArc
 50
290.477916
 51
315.0
  0
LINE
  5
24D
330
1F
100
AcDbEntity
  8
0
100
AcDbLine
 10
3.900724931644656
 20
4.157472331432203
 30
0.0
 11
3.900724723156461
 21
4.007473057804041
 31
0.0
  0
LINE
  5
24E
330
1F
100
AcDbEntity
  8
0
100
AcDbLine
 10
4.300724604171332
 20
4.264652658905527
 30
0.0
 11
4.375724931644656
 21
4.134748331432203
 31
0.0
  0
ARC
  5
24F
330
1F
100
AcDbEntity
  8
0
100
AcDbCircle
 10
4.010943572364253
 20
4.568813989265896
 30
0.0
 40
1.119629232825202
100
AcDbArc
 50
50.47787293265496
 51
75.00000971324752
  0
ARC
  5
250
330
1F
100
AcDbEntity
  8
0
100
AcDbCircle
 10
4.28938327381096
 20
5.0676909721518
 30
0.0
 40
1.119629232825199
100
AcDbArc
 50
140.4778729326548
 51
165.0000097132474
  0
LINE
  5
25B
330
1F
100
AcDbEntity
  8
0
100
AcDbLine
 10
6.352795034320456
 20
4.584330883043466
 30
0.0
 11
6.352795034320456
 21
5.584330883043466
 31
0.0
  0
CIRCLE
  5
25C
330
1F
100
AcDbEntity
  8
0
100
AcDbCircle
 10
5.502795034320456
 20
5.084330883043466
 30
0.0
 40
0.07
  0
LINE
  5
25D
330
1F
100
AcDbEntity
  8
0
100
AcDbLine
 10
5.352795034320456
 20
4.584330883043466
 30
0.0
 11
5.352795034320456
 21
5.584330883043466
 31
0.0
  0
CIRCLE
  5
25E
330
1F
100
AcDbEntity
  8
0
100
AcDbCircle
 10
6.202795034320455
 20
5.084330883043466
 30
0.0
 40
0.07
  0
LINE
  5
25F
330
1F
100
AcDbEntity
  8
0
100
AcDbLine
 10
5.352795034320456
 20
4.584330883043466
 30
0.0
 11
6.352795034320456
 21
4.584330883043466
 31
0.0
  0
LINE
  5
260
330
1F
100
AcDbEntity
  8
0
100
AcDbLine
 10
5.352795034320456
 20
5.584330883043466
 30
0.0
 11
6.352795034320456
 21
5.584330883043466
 31
0.0
  0
LWPOLYLINE
  5
268
330
1F
100
AcDbEntity
  8
0
 62
     6
100
AcDbPolyline
 90
        6
 70
     0
 43
0.0
 10
6.740401994359304
 20
1.023358363855681
 10
6.718912061225265
 20
0.9165634802456777
 42
0.3178372451957654
 10
6.745521258241097
 20
0.8564793777127221
 42
0.1715728752538373
 10
6.8385053829919
 20
0.8377685316883191
 42
0.3178372451957713
 10
6.886283485776691
 20
0.8828839574017397
 10
6.907773418910729
 20
0.9896788410117434
  0
LWPOLYLINE
  5
269
330
1F
100
AcDbEntity
  8
0
 62
     6
100
AcDbPolyline
 90
        6
 70
     0
 43
0.0
 10
6.469827834447269
 20
1.077804985339366
 10
6.530121311228432
 20
0.9880385006405905
 10
6.511455809538704
 20
0.8952797159555172
 10
6.512013714287208
 20
0.8951674508793708
 10
6.530679215976936
 20
0.987926235564444
 10
6.620442830318017
 20
1.047497295674516
  0
LWPOLYLINE
  5
26A
330
1F
100
AcDbEntity
  8
0
 62
     6
100
AcDbPolyline
 90
        8
 70
     1
 43
0.0
 10
6.193803766494572
 20
1.045693461722254
 10
6.193916031570719
 20
1.046251366470759
 10
6.305133671558774
 20
1.023871458689811
 42
0.9999999999999998
 10
6.321973432980742
 20
1.107557170965525
 10
6.210392483279793
 20
1.130010186194816
 10
6.176712960435854
 20
0.9626387616433923
 10
6.288293910136804
 20
0.9401857464141007
 42
1.006733930650412
 10
6.305021406482627
 20
1.023313553941308
  0
LWPOLYLINE
  5
277
330
1F
100
AcDbEntity
  8
0
 62
     6
100
AcDbPolyline
 90
        2
 70
     0
 43
0.0
 10
7.671750451536528
 20
2.322368388418838
 42
0.9999999999999998
 10
7.841029675480843
 20
2.371842314616864
  0
SPLINE
  5
278
330
1F
100
AcDbEntity
  8
0
 62
     6
100
AcDbSpline
210
0.0
220
0.0
230
1.0
 70
     8
 71
     3
 72
     9
 73
     5
 74
     3
 42
0.0000000001
 43
0.0000000001
 44
0.0000000001
 40
0.0
 40
0.0
 40
0.0
 40
0.0
 40
0.0495749230969408
 40
0.0931965407731884
 40
0.0931965407731884
 40
0.0931965407731884
 40
0.0931965407731884
 10
7.671750451536528
 20
2.322368388418838
 30
0.0
 10
7.668297233524348
 20
2.339041077447127
 30
0.0
 10
7.661805484205009
 20
2.370384281747923
 30
0.0
 10
7.675107080764253
 20
2.399352273803812
 30
0.0
 10
7.681333032444188
 20
2.412911046091143
 30
0.0
 11
7.671750451536528
 21
2.322368388418838
 31
0.0
 11
7.666991515764994
 21
2.371714366273066
 31
0.0
 11
7.681333032444188
 21
2.412911046091143
 31
0.0
  0
SPLINE
  5
279
330
1F
100
AcDbEntity
  8
0
 62
     6
100
AcDbSpline
210
0.0
220
0.0
230
1.0
 70
     8
 71
     3
 72
     9
 73
     5
 74
     3
 42
0.0000000001
 43
0.0000000001
 44
0.0000000001
 40
0.0
 40
0.0
 40
0.0
 40
0.0
 40
0.0495749230969424
 40
0.0931965407731899
 40
0.0931965407731899
 40
0.0931965407731899
 40
0.0931965407731899
 10
7.841029675480843
 20
2.371842314616864
 30
0.0
 10
7.834960726846357
 20
2.38775052433844
 30
0.0
 10
7.823551631611689
 20
2.417656574077462
 30
0.0
 10
7.796743588171759
 20
2.434902032659301
 30
0.0
 10
7.784195802471959
 20
2.442973950293448
 30
0.0
 11
7.841029675480843
 21
2.371842314616864
 31
0.0
 11
7.818465548549498
 21
2.41598450731154
 31
0.0
 11
7.784195802471959
 21
2.442973950293448
 31
0.0
  0
LWPOLYLINE
  5
27A
330
1F
100
AcDbEntity
  8
0
 62
     6
100
AcDbPolyline
 90
        5
 70
     0
 43
0.0
 10
7.738097806007333
 20
2.724032413980923
 10
7.575136574971068
 20
2.652940940550449
 10
7.747732534892683
 20
2.620793346756968
 10
7.619613840802404
 20
2.500758212764563
 10
7.795211057654771
 20
2.528614591730138
  0
LWPOLYLINE
  5
27B
330
1F
100
AcDbEntity
  8
0
 62
     6
100
AcDbPolyline
 90
        5
 70
     0
 43
0.0
 10
7.71450199963729
 20
2.804767461663893
 10
7.545222775692975
 20
2.755293535465866
 10
7.527764813083727
 20
2.815027431464202
 42
-0.9635605050050674
 10
7.609317959243496
 20
2.838862337132557
 10
7.626775921852743
 20
2.779128441134222
  0
LWPOLYLINE
  5
27C
330
1F
100
AcDbEntity
  8
0
 62
     6
100
AcDbPolyline
 90
        2
 70
     0
 43
0.0
 10
7.619273062229215
 20
2.804800110072532
 10
7.683538661668796
 20
2.91071114199871
  0
ENDSEC
  0
SECTION
  2
OBJECTS
  0
DICTIONARY
  5
C
330
0
100
AcDbDictionary
281
     1
  3
ACAD_COLOR
350
D4
  3
ACAD_GROUP
350
D
  3
ACAD_LAYOUT
350
1A
  3
ACAD_MATERIAL
350
D3
  3
ACAD_MLINESTYLE
350
17
  3
ACAD_PLOTSETTINGS
350
19
  3
ACAD_PLOTSTYLENAME
350
E
  3
ACAD_TABLESTYLE
350
280
  3
ACDBVARIABLEDICTIONARY
350
66
  3
ASE_INDEX_DICTIONARY
350
15D
  0
DICTIONARY
  5
C5
330
1F
100
AcDbDictionary
280
     1
281
     1
  3
ACAD_LAYOUTSELFREF
360
C6
  0
DICTIONARY
  5
C7
330
58
100
AcDbDictionary
280
     1
281
     1
  3
ACAD_LAYOUTSELFREF
360
C8
  0
DICTIONARY
  5
D4
102
{ACAD_REACTORS
330
C
102
}
330
C
100
AcDbDictionary
281
     1
  0
DICTIONARY
  5
D
102
{ACAD_REACTORS
330
C
102
}
330
C
100
AcDbDictionary
281
     1
  0
DICTIONARY
  5
1A
102
{ACAD_REACTORS
330
C
102
}
330
C
100
AcDbDictionary
281
     1
  3
Layout1
350
CE
  3
Model
350
CD
  0
DICTIONARY
  5
D3
102
{ACAD_REACTORS
330
C
102
}
330
C
100
AcDbDictionary
281
     1
  0
DICTIONARY
  5
17
102
{ACAD_REACTORS
330
C
102
}
330
C
100
AcDbDictionary
281
     1
  3
STANDARD
350
18
  0
DICTIONARY
  5
19
102
{ACAD_REACTORS
330
C
102
}
330
C
100
AcDbDictionary
281
     1
  0
ACDBDICTIONARYWDFLT
  5
E
102
{ACAD_REACTORS
330
C
102
}
330
C
100
AcDbDictionary
281
     1
  3
Normal
350
F
100
AcDbDictionaryWithDefault
340
F
  0
DICTIONARY
  5
280
102
{ACAD_REACTORS
330
C
102
}
330
C
100
AcDbDictionary
281
     1
  3
Standard
350
281
  0
DICTIONARY
  5
66
102
{ACAD_REACTORS
330
C
102
}
330
C
100
AcDbDictionary
281
     1
  3
CTABLESTYLE
350
285
  3
DIMASSOC
350
67
  3
HIDETEXT
350
6B
  0
DICTIONARY
  5
15D
102
{ACAD_REACTORS
330
C
102
}
330
C
100
AcDbDictionary
281
     1
  3
ASEBlockHierarchyIndexRecord
350
15F
1001
DCO15
1040
1575113095.773
  0
XRECORD
  5
C6
102
{ACAD_REACTORS
330
C5
102
}
330
C5
100
AcDbXrecord
280
     1
340
1F
  0
XRECORD
  5
C8
102
{ACAD_REACTORS
330
C7
102
}
330
C7
100
AcDbXrecord
280
     1
340
58
  0
LAYOUT
  5
CE
102
{ACAD_REACTORS
330
1A
102
}
330
1A
100
AcDbPlotSettings
  1

  2
PrintsCharming
  4

  6

 40
0.0
 41
0.0
 42
0.0
 43
0.0
 44
0.0
 45
0.0
 46
0.0
 47
0.0
 48
0.0
 49
0.0
140
0.0
141
0.0
142
1.0
143
1.0
 70
   688
 72
     0
 73
     0
 74
     5
  7

 75
    16
147
1.0
 76
     0
 77
     2
 78
   300
148
0.0
149
0.0
100
AcDbLayout
  1
Layout1
 70
     1
 71
     1
 10
0.0
 20
0.0
 11
12.0
 21
9.0
 12
0.0
 22
0.0
 32
0.0
 14
0.0
 24
0.0
 34
0.0
 15
0.0
 25
0.0
 35
0.0
146
0.0
 13
0.0
 23
0.0
 33
0.0
 16
1.0
 26
0.0
 36
0.0
 17
0.0
 27
1.0
 37
0.0
 76
     0
330
58
  0
LAYOUT
  5
CD
102
{ACAD_REACTORS
330
1A
102
}
330
1A
100
AcDbPlotSettings
  1

  2
PrintsCharming
  4

  6

 40
0.0
 41
0.0
 42
0.0
 43
0.0
 44
0.0
 45
0.0
 46
0.0
 47
0.0
 48
0.0
 49
0.0
140
0.0
141
0.0
142
1.0
143
1.0
 70
  1712
 72
     0
 73
     0
 74
     0
  7

 75
     0
147
1.0
 76
     0
 77
     2
 78
   300
148
0.0
149
0.0
100
AcDbLayout
  1
Model
 70
     1
 71
     0
 10
0.0
 20
0.0
 11
12.0
 21
9.0
 12
0.0
 22
0.0
 32
0.0
 14
0.0
 24
0.0
 34
0.0
 15
0.0
 25
0.0
 35
0.0
146
0.0
 13
0.0
 23
0.0
 33
0.0
 16
1.0
 26
0.0
 36
0.0
 17
0.0
 27
1.0
 37
0.0
 76
     0
330
1F
  0
MLINESTYLE
  5
18
102
{ACAD_REACTORS
330
17
102
}
330
17
100
AcDbMlineStyle
  2
STANDARD
 70
     0
  3

 62
   256
 51
90.0
 52
90.0
 71
     2
 49
0.5
 62
   256
  6
BYLAYER
 49
-0.5
 62
   256
  6
BYLAYER
  0
ACDBPLACEHOLDER
  5
F
102
{ACAD_REACTORS
330
E
102
}
330
E
  0
TABLESTYLE
  5
281
102
{ACAD_REACTORS
330
280
102
}
330
280
100
AcDbTableStyle
  3
Standard
 70
     0
 71
     0
 40
0.06
 41
0.06
280
     0
281
     0
  7
STANDARD
140
0.18
170
     2
 62
     0
 63
     7
283
     0
274
    -2
284
     1
 64
     0
275
    -2
285
     1
 65
     0
276
    -2
286
     1
 66
     0
277
    -2
287
     1
 67
     0
278
    -2
288
     1
 68
     0
279
    -2
289
     1
 69
     0
  7
STANDARD
140
0.25
170
     5
 62
     0
 63
     7
283
     0
274
    -2
284
     1
 64
     0
275
    -2
285
     1
 65
     0
276
    -2
286
     1
 66
     0
277
    -2
287
     1
 67
     0
278
    -2
288
     1
 68
     0
279
    -2
289
     1
 69
     0
  7
STANDARD
140
0.18
170
     5
 62
     0
 63
     7
283
     0
274
    -2
284
     1
 64
     0
275
    -2
285
     1
 65
     0
276
    -2
286
     1
 66
     0
277
    -2
287
     1
 67
     0
278
    -2
288
     1
 68
     0
279
    -2
289
     1
 69
     0
  0
DICTIONARYVAR
  5
285
102
{ACAD_REACTORS
330
66
102
}
330
66
100
DictionaryVariables
280
     0
  1
STANDARD
  0
DICTIONARYVAR
  5
67
102
{ACAD_REACTORS
330
66
102
}
330
66
100
DictionaryVariables
280
     0
  1
2
  0
DICTIONARYVAR
  5
6B
102
{ACAD_REACTORS
330
66
102
}
330
66
100
DictionaryVariables
280
     0
  1
1
  0
XRECORD
  5
15F
102
{ACAD_REACTORS
330
15D
102
}
330
15D
100
AcDbXrecord
280
     1
  0
ENDSEC
  0
EOF
