  0
SECTION
  2
HEADER
  9
$ACADVER
  1
AC1018
  9
$ACADMAINTVER
 70
    76
  9
$DWGCODEPAGE
  3
ANSI_1252
  9
$INSBASE
 10
0.0
 20
0.0
 30
0.0
  9
$EXTMIN
 10
-2.849968080035624
 20
-2.849968080035624
 30
0.0
  9
$EXTMAX
 10
2.849968080035624
 20
2.849968080035624
 30
0.0
  9
$LIMMIN
 10
0.0
 20
0.0
  9
$LIMMAX
 10
22.0
 20
17.0
  9
$ORTHOMODE
 70
     0
  9
$REGENMODE
 70
     1
  9
$FILLMODE
 70
     1
  9
$QTEXTMODE
 70
     0
  9
$MIRRTEXT
 70
     1
  9
$LTSCALE
 40
1.209999999999999
  9
$ATTMODE
 70
     1
  9
$TEXTSIZE
 40
0.2
  9
$TRACEWID
 40
0.05
  9
$TEXTSTYLE
  7
STANDARD
  9
$CLAYER
  8
0
  9
$CELTYPE
  6
BYLAYER
  9
$CECOLOR
 62
   256
  9
$CELTSCALE
 40
1.0
  9
$DISPSILH
 70
     0
  9
$DIMSCALE
 40
1.0
  9
$DIMASZ
 40
0.1875
  9
$DIMEXO
 40
0.0625
  9
$DIMDLI
 40
0.38
  9
$DIMRND
 40
0.0
  9
$DIMDLE
 40
0.0
  9
$DIMEXE
 40
0.18
  9
$DIMTP
 40
0.0
  9
$DIMTM
 40
0.0
  9
$DIMTXT
 40
0.15625
  9
$DIMCEN
 40
0.09
  9
$DIMTSZ
 40
0.0
  9
$DIMTOL
 70
     0
  9
$DIMLIM
 70
     0
  9
$DIMTIH
 70
     1
  9
$DIMTOH
 70
     1
  9
$DIMSE1
 70
     0
  9
$DIMSE2
 70
     0
  9
$DIMTAD
 70
     0
  9
$DIMZIN
 70
     4
  9
$DIMBLK
  1
CLOSED
  9
$DIMASO
 70
     1
  9
$DIMSHO
 70
     1
  9
$DIMPOST
  1

  9
$DIMAPOST
  1

  9
$DIMALT
 70
     0
  9
$DIMALTD
 70
     2
  9
$DIMALTF
 40
25.4
  9
$DIMLFAC
 40
1.0
  9
$DIMTOFL
 70
     0
  9
$DIMTVP
 40
0.0
  9
$DIMTIX
 70
     0
  9
$DIMSOXD
 70
     0
  9
$DIMSAH
 70
     0
  9
$DIMBLK1
  1

  9
$DIMBLK2
  1

  9
$DIMSTYLE
  2
DIMSTYLE_5
  9
$DIMCLRD
 70
     0
  9
$DIMCLRE
 70
     0
  9
$DIMCLRT
 70
     0
  9
$DIMTFAC
 40
1.0
  9
$DIMGAP
 40
0.09
  9
$DIMJUST
 70
     0
  9
$DIMSD1
 70
     0
  9
$DIMSD2
 70
     0
  9
$DIMTOLJ
 70
     1
  9
$DIMTZIN
 70
     4
  9
$DIMALTZ
 70
     0
  9
$DIMALTTZ
 70
     0
  9
$DIMUPT
 70
     0
  9
$DIMDEC
 70
     3
  9
$DIMTDEC
 70
     3
  9
$DIMALTU
 70
     2
  9
$DIMALTTD
 70
     2
  9
$DIMTXSTY
  7
STANDARD
  9
$DIMAUNIT
 70
     0
  9
$DIMADEC
 70
     2
  9
$DIMALTRND
 40
0.0
  9
$DIMAZIN
 70
     0
  9
$DIMDSEP
 70
    46
  9
$DIMATFIT
 70
     3
  9
$DIMFRAC
 70
     0
  9
$DIMLDRBLK
  1
CLOSED
  9
$DIMLUNIT
 70
     2
  9
$DIMLWD
 70
    -2
  9
$DIMLWE
 70
    -2
  9
$DIMTMOVE
 70
     0
  9
$LUNITS
 70
     2
  9
$LUPREC
 70
     4
  9
$SKETCHINC
 40
0.1
  9
$FILLETRAD
 40
0.0
  9
$AUNITS
 70
     0
  9
$AUPREC
 70
     0
  9
$MENU
  1
acad
  9
$ELEVATION
 40
0.0
  9
$PELEVATION
 40
0.0
  9
$THICKNESS
 40
0.0
  9
$LIMCHECK
 70
     0
  9
$CHAMFERA
 40
0.0
  9
$CHAMFERB
 40
0.0
  9
$CHAMFERC
 40
0.0
  9
$CHAMFERD
 40
0.0
  9
$SKPOLY
 70
     0
  9
$TDCREATE
 40
2444971.750000000
  9
$TDUCREATE
 40
2444972.000000000
  9
$TDUPDATE
 40
2454236.549011123
  9
$TDUUPDATE
 40
2454236.799011123
  9
$TDINDWG
 40
0.0710333333
  9
$TDUSRTIMER
 40
0.0710333333
  9
$USRTIMER
 70
     1
  9
$ANGBASE
 50
0.0
  9
$ANGDIR
 70
     0
  9
$PDMODE
 70
     3
  9
$PDSIZE
 40
0.3125
  9
$PLINEWID
 40
0.0
  9
$SPLFRAME
 70
     0
  9
$SPLINETYPE
 70
     6
  9
$SPLINESEGS
 70
     8
  9
$HANDSEED
  5
545
  9
$SURFTAB1
 70
     6
  9
$SURFTAB2
 70
     6
  9
$SURFTYPE
 70
     6
  9
$SURFU
 70
     6
  9
$SURFV
 70
     6
  9
$UCSBASE
  2

  9
$UCSNAME
  2

  9
$UCSORG
 10
0.0
 20
0.0
 30
0.0
  9
$UCSXDIR
 10
1.0
 20
0.0
 30
0.0
  9
$UCSYDIR
 10
0.0
 20
1.0
 30
0.0
  9
$UCSORTHOREF
  2

  9
$UCSORTHOVIEW
 70
     0
  9
$UCSORGTOP
 10
0.0
 20
0.0
 30
0.0
  9
$UCSORGBOTTOM
 10
0.0
 20
0.0
 30
0.0
  9
$UCSORGLEFT
 10
0.0
 20
0.0
 30
0.0
  9
$UCSORGRIGHT
 10
0.0
 20
0.0
 30
0.0
  9
$UCSORGFRONT
 10
0.0
 20
0.0
 30
0.0
  9
$UCSORGBACK
 10
0.0
 20
0.0
 30
0.0
  9
$PUCSBASE
  2

  9
$PUCSNAME
  2

  9
$PUCSORG
 10
0.0
 20
0.0
 30
0.0
  9
$PUCSXDIR
 10
1.0
 20
0.0
 30
0.0
  9
$PUCSYDIR
 10
0.0
 20
1.0
 30
0.0
  9
$PUCSORTHOREF
  2

  9
$PUCSORTHOVIEW
 70
     0
  9
$PUCSORGTOP
 10
0.0
 20
0.0
 30
0.0
  9
$PUCSORGBOTTOM
 10
0.0
 20
0.0
 30
0.0
  9
$PUCSORGLEFT
 10
0.0
 20
0.0
 30
0.0
  9
$PUCSORGRIGHT
 10
0.0
 20
0.0
 30
0.0
  9
$PUCSORGFRONT
 10
0.0
 20
0.0
 30
0.0
  9
$PUCSORGBACK
 10
0.0
 20
0.0
 30
0.0
  9
$USERI1
 70
     0
  9
$USERI2
 70
     0
  9
$USERI3
 70
     0
  9
$USERI4
 70
     0
  9
$USERI5
 70
     0
  9
$USERR1
 40
0.0
  9
$USERR2
 40
0.0
  9
$USERR3
 40
0.0
  9
$USERR4
 40
0.0
  9
$USERR5
 40
0.0
  9
$WORLDVIEW
 70
     1
  9
$SHADEDGE
 70
     3
  9
$SHADEDIF
 70
    70
  9
$TILEMODE
 70
     1
  9
$MAXACTVP
 70
    16
  9
$PINSBASE
 10
0.0
 20
0.0
 30
0.0
  9
$PLIMCHECK
 70
     0
  9
$PEXTMIN
 10
1.000000000000000E+20
 20
1.000000000000000E+20
 30
1.000000000000000E+20
  9
$PEXTMAX
 10
-1.000000000000000E+20
 20
-1.000000000000000E+20
 30
-1.000000000000000E+20
  9
$PLIMMIN
 10
0.0
 20
0.0
  9
$PLIMMAX
 10
12.0
 20
9.0
  9
$UNITMODE
 70
     0
  9
$VISRETAIN
 70
     0
  9
$PLINEGEN
 70
     1
  9
$PSLTSCALE
 70
     0
  9
$TREEDEPTH
 70
  3020
  9
$CMLSTYLE
  2
STANDARD
  9
$CMLJUST
 70
     0
  9
$CMLSCALE
 40
1.0
  9
$PROXYGRAPHICS
 70
     1
  9
$MEASUREMENT
 70
     0
  9
$CELWEIGHT
370
    -1
  9
$ENDCAPS
280
     0
  9
$JOINSTYLE
280
     0
  9
$LWDISPLAY
290
     0
  9
$INSUNITS
 70
     0
  9
$HYPERLINKBASE
  1

  9
$STYLESHEET
  1

  9
$XEDIT
290
     1
  9
$CEPSNTYPE
380
     0
  9
$PSTYLEMODE
290
     1
  9
$FINGERPRINTGUID
  2
{32424F4C-19D4-495E-851C-6EEAD71AA58B}
  9
$VERSIONGUID
  2
{18F5CDFB-C075-4864-9438-6EA1B16D9C75}
  9
$EXTNAMES
290
     1
  9
$PSVPSCALE
 40
0.0
  9
$OLESTARTUP
290
     0
  9
$SORTENTS
280
   127
  9
$INDEXCTL
280
     0
  9
$HIDETEXT
280
     0
  9
$XCLIPFRAME
290
     0
  9
$HALOGAP
280
     0
  9
$OBSCOLOR
 70
   257
  9
$OBSLTYPE
280
     0
  9
$INTERSECTIONDISPLAY
280
     0
  9
$INTERSECTIONCOLOR
 70
   257
  9
$DIMASSOC
280
     1
  9
$PROJECTNAME
  1

  0
ENDSEC
  0
SECTION
  2
CLASSES
  0
CLASS
  1
IMAGE
  2
AcDbRasterImage
  3
ISM
 90
      127
 91
        0
280
     0
281
     1
  0
CLASS
  1
DICTIONARYVAR
  2
AcDbDictionaryVar
  3
ObjectDBX Classes
 90
        0
 91
        2
280
     0
281
     0
  0
CLASS
  1
RASTERVARIABLES
  2
AcDbRasterVariables
  3
ISM
 90
        0
 91
        0
280
     0
281
     0
  0
CLASS
  1
IMAGEDEF
  2
AcDbRasterImageDef
  3
ISM
 90
        0
 91
        0
280
     0
281
     0
  0
CLASS
  1
IMAGEDEF_REACTOR
  2
AcDbRasterImageDefReactor
  3
ISM
 90
        1
 91
        0
280
     0
281
     0
  0
CLASS
  1
IDBUFFER
  2
AcDbIdBuffer
  3
ObjectDBX Classes
 90
        0
 91
        0
280
     0
281
     0
  0
CLASS
  1
SPATIAL_FILTER
  2
AcDbSpatialFilter
  3
ObjectDBX Classes
 90
        0
 91
        0
280
     0
281
     0
  0
CLASS
  1
SORTENTSTABLE
  2
AcDbSortentsTable
  3
ObjectDBX Classes
 90
        0
 91
        0
280
     0
281
     0
  0
CLASS
  1
LAYER_INDEX
  2
AcDbLayerIndex
  3
ObjectDBX Classes
 90
        0
 91
        0
280
     0
281
     0
  0
CLASS
  1
SPATIAL_INDEX
  2
AcDbSpatialIndex
  3
ObjectDBX Classes
 90
        0
 91
        0
280
     0
281
     0
  0
CLASS
  1
OBJECT_PTR
  2
CAseDLPNTableRecord
  3
ASE-LPNTableRecord
 90
        1
 91
        0
280
     0
281
     0
  0
CLASS
  1
PLOTSETTINGS
  2
AcDbPlotSettings
  3
ObjectDBX Classes
 90
        0
 91
        0
280
     0
281
     0
  0
CLASS
  1
ACDBDICTIONARYWDFLT
  2
AcDbDictionaryWithDefault
  3
ObjectDBX Classes
 90
        0
 91
        1
280
     0
281
     0
  0
CLASS
  1
WIPEOUT
  2
AcDbWipeout
  3
"WipeOut|Product Desc: Object Enabler for WipeOut entity^I^I^I^I^I^I|Company: Autodesk, Inc.^I^I^I^I^I^I|WEB Address: www.autodesk.com"
 90
      127
 91
        0
280
     0
281
     1
  0
CLASS
  1
WIPEOUTVARIABLES
  2
AcDbWipeoutVariables
  3
"WipeOut|Product Desc:     WipeOut Dbx Application|Company:          Autodesk, Inc.|WEB Address:      www.autodesk.com"
 90
        0
 91
        0
280
     0
281
     0
  0
CLASS
  1
RTEXT
  2
RText
  3
RText|AutoCAD Express Tool|expresstools@autodesk.com
 90
        0
 91
        0
280
     0
281
     1
  0
CLASS
  1
ARCALIGNEDTEXT
  2
AcDbArcAlignedText
  3
ATEXT|AutoCAD Express Tool|expresstools@autodesk.com
 90
        0
 91
        0
280
     0
281
     1
  0
CLASS
  1
TABLESTYLE
  2
AcDbTableStyle
  3
ObjectDBX Classes
 90
     2047
 91
        1
280
     0
281
     0
  0
ENDSEC
  0
SECTION
  2
TABLES
  0
TABLE
  2
VPORT
  5
8
330
0
100
AcDbSymbolTable
 70
     3
  0
VPORT
  5
544
330
8
100
AcDbSymbolTableRecord
100
AcDbViewportTableRecord
  2
*Active
 70
     0
 10
0.0
 20
0.0
 11
1.0
 21
1.0
 12
1.508372259378898
 22
0.3965001201572891
 13
0.0
 23
0.0
 14
1.0
 24
1.0
 15
0.0
 25
0.0
 16
0.0
 26
0.0
 36
1.0
 17
0.0
 27
0.0
 37
0.0
 40
10.53398809451426
 41
1.536679536679536
 42
50.0
 43
0.0
 44
0.0
 50
0.0
 51
0.0
 71
     0
 72
   100
 73
     1
 74
     1
 75
     0
 76
     0
 77
     0
 78
     0
281
     0
 65
     1
110
0.0
120
0.0
130
0.0
111
1.0
121
0.0
131
0.0
112
0.0
122
1.0
132
0.0
 79
     0
146
0.0
  0
ENDTAB
  0
TABLE
  2
LTYPE
  5
5
330
0
100
AcDbSymbolTable
 70
     6
  0
LTYPE
  5
14
330
5
100
AcDbSymbolTableRecord
100
AcDbLinetypeTableRecord
  2
BYBLOCK
 70
     0
  3

 72
    65
 73
     0
 40
0.0
  0
LTYPE
  5
15
330
5
100
AcDbSymbolTableRecord
100
AcDbLinetypeTableRecord
  2
BYLAYER
 70
     0
  3

 72
    65
 73
     0
 40
0.0
  0
LTYPE
  5
16
330
5
100
AcDbSymbolTableRecord
100
AcDbLinetypeTableRecord
  2
CONTINUOUS
 70
     0
  3
Solid line
 72
    65
 73
     0
 40
0.0
  0
LTYPE
  5
1F5
330
5
100
AcDbSymbolTableRecord
100
AcDbLinetypeTableRecord
  2
CENTER
 70
     0
  3
____ _ ____ _ ____ _ ____ _ ____ _ ____ _ ____
 72
    65
 73
     4
 40
0.6
 49
0.375
 74
     0
 49
-0.075
 74
     0
 49
0.075
 74
     0
 49
-0.075
 74
     0
  0
LTYPE
  5
1F6
330
5
100
AcDbSymbolTableRecord
100
AcDbLinetypeTableRecord
  2
HIDDEN
 70
     0
  3
- - - - - - - - - - - - - - - - - - - -
 72
    65
 73
     2
 40
0.2
 49
0.1
 74
     0
 49
-0.1
 74
     0
  0
LTYPE
  5
1F7
330
5
100
AcDbSymbolTableRecord
100
AcDbLinetypeTableRecord
  2
PHANTOM
 70
     0
  3
_____ _ _ _____ _ _ _____ _ _ _____
 72
    65
 73
     6
 40
0.8
 49
0.45
 74
     0
 49
-0.05
 74
     0
 49
0.1
 74
     0
 49
-0.05
 74
     0
 49
0.1
 74
     0
 49
-0.05
 74
     0
  0
LTYPE
  5
1F8
330
5
100
AcDbSymbolTableRecord
100
AcDbLinetypeTableRecord
  2
DOT
 70
     0
  3
. . . . . . . . . . . . . . . . . . . .
 72
    65
 73
     2
 40
0.2
 49
0.1
 74
     0
 49
-0.1
 74
     0
  0
LTYPE
  5
1F9
330
5
100
AcDbSymbolTableRecord
100
AcDbLinetypeTableRecord
  2
DASHED
 70
     0
  3
- - - - - - - - - - - - - - - - - - - -
 72
    65
 73
     2
 40
0.2
 49
0.1
 74
     0
 49
-0.1
 74
     0
  0
ENDTAB
  0
TABLE
  2
LAYER
  5
2
330
0
100
AcDbSymbolTable
 70
    17
  0
LAYER
  5
10
330
2
100
AcDbSymbolTableRecord
100
AcDbLayerTableRecord
  2
0
 70
     0
 62
     7
  6
CONTINUOUS
370
    -3
390
3D0
  0
LAYER
  5
1FA
330
2
100
AcDbSymbolTableRecord
100
AcDbLayerTableRecord
  2
DEFAULT_1
 70
     0
 62
     7
  6
CENTER
370
    -3
390
3D0
  0
LAYER
  5
1FB
330
2
100
AcDbSymbolTableRecord
100
AcDbLayerTableRecord
  2
DEFAULT_2
 70
     0
 62
     8
  6
HIDDEN
370
    -3
390
3D0
  0
LAYER
  5
1FC
330
2
100
AcDbSymbolTableRecord
100
AcDbLayerTableRecord
  2
DEFAULT_3
 70
     0
 62
     7
  6
PHANTOM
370
    -3
390
3D0
  0
LAYER
  5
1FD
330
2
100
AcDbSymbolTableRecord
100
AcDbLayerTableRecord
  2
01___PRT_ALL_DTM_PLN
 70
     0
 62
     7
  6
CONTINUOUS
370
    -3
390
3D0
  0
LAYER
  5
1FE
330
2
100
AcDbSymbolTableRecord
100
AcDbLayerTableRecord
  2
01___PRT_DEF_DTM_PLN
 70
     0
 62
     7
  6
CONTINUOUS
370
    -3
390
3D0
  0
LAYER
  5
1FF
330
2
100
AcDbSymbolTableRecord
100
AcDbLayerTableRecord
  2
02___PRT_ALL_AXES
 70
     0
 62
     7
  6
CONTINUOUS
370
    -3
390
3D0
  0
LAYER
  5
200
330
2
100
AcDbSymbolTableRecord
100
AcDbLayerTableRecord
  2
03___PRT_ALL_CURVES
 70
     0
 62
     7
  6
CONTINUOUS
370
    -3
390
3D0
  0
LAYER
  5
201
330
2
100
AcDbSymbolTableRecord
100
AcDbLayerTableRecord
  2
04___PRT_ALL_DTM_PNT
 70
     0
 62
     7
  6
CONTINUOUS
370
    -3
390
3D0
  0
LAYER
  5
202
330
2
100
AcDbSymbolTableRecord
100
AcDbLayerTableRecord
  2
05___PRT_ALL_DTM_CSYS
 70
     0
 62
     7
  6
CONTINUOUS
370
    -3
390
3D0
  0
LAYER
  5
203
330
2
100
AcDbSymbolTableRecord
100
AcDbLayerTableRecord
  2
05___PRT_DEF_DTM_CSYS
 70
     0
 62
     7
  6
CONTINUOUS
370
    -3
390
3D0
  0
LAYER
  5
204
330
2
100
AcDbSymbolTableRecord
100
AcDbLayerTableRecord
  2
06___PRT_ALL_SURFS
 70
     0
 62
     7
  6
CONTINUOUS
370
    -3
390
3D0
  0
LAYER
  5
205
330
2
100
AcDbSymbolTableRecord
100
AcDbLayerTableRecord
  2
3_ALL_AXES
 70
     0
 62
     7
  6
CONTINUOUS
370
    -3
390
3D0
  0
LAYER
  5
206
330
2
100
AcDbSymbolTableRecord
100
AcDbLayerTableRecord
  2
3_ALL_SYMBOLS
 70
     0
 62
     7
  6
CONTINUOUS
370
    -3
390
3D0
  0
LAYER
  5
207
330
2
100
AcDbSymbolTableRecord
100
AcDbLayerTableRecord
  2
7_ALL_FEATURES
 70
     0
 62
     7
  6
CONTINUOUS
370
    -3
390
3D0
  0
LAYER
  5
208
330
2
100
AcDbSymbolTableRecord
100
AcDbLayerTableRecord
  2
8_ALL_DIMS
 70
     0
 62
     7
  6
CONTINUOUS
370
    -3
390
3D0
  0
LAYER
  5
43F
330
2
100
AcDbSymbolTableRecord
100
AcDbLayerTableRecord
  2
Defpoints
 70
     0
 62
     7
  6
CONTINUOUS
290
     0
370
    -3
390
3D0
  0
ENDTAB
  0
TABLE
  2
STYLE
  5
3
330
0
100
AcDbSymbolTable
 70
     2
  0
STYLE
  5
11
330
3
100
AcDbSymbolTableRecord
100
AcDbTextStyleTableRecord
  2
STANDARD
 70
     0
 40
0.0
 41
0.8
 50
0.0
 71
     0
 42
0.2
  3
txt
  4

  0
STYLE
  5
209
330
3
100
AcDbSymbolTableRecord
100
AcDbTextStyleTableRecord
  2
TEXTSTYLE_1
 70
     0
 40
0.0
 41
0.8
 50
0.0
 71
     0
 42
0.2
  3
txt
  4

  0
ENDTAB
  0
TABLE
  2
VIEW
  5
6
330
0
100
AcDbSymbolTable
 70
     0
  0
ENDTAB
  0
TABLE
  2
UCS
  5
7
330
0
100
AcDbSymbolTable
 70
     0
  0
ENDTAB
  0
TABLE
  2
APPID
  5
9
330
0
100
AcDbSymbolTable
 70
     2
  0
APPID
  5
20A
330
9
100
AcDbSymbolTableRecord
100
AcDbRegAppTableRecord
  2
ACAD
 70
     0
  0
APPID
  5
3D9
330
9
100
AcDbSymbolTableRecord
100
AcDbRegAppTableRecord
  2
DCO15
 70
     0
  0
ENDTAB
  0
TABLE
  2
DIMSTYLE
  5
A
330
0
100
AcDbSymbolTable
 70
     7
100
AcDbDimStyleTable
 71
     6
340
210
340
20F
340
20E
340
20D
340
20C
340
20B
  0
DIMSTYLE
105
20B
330
A
100
AcDbSymbolTableRecord
100
AcDbDimStyleTableRecord
  2
STANDARD
 70
     0
 41
0.1875
 47
0.01
 48
0.01
 78
     4
140
0.15625
271
     2
272
     2
284
     4
340
11
341
212
342
212
343
212
344
212
  0
DIMSTYLE
105
20C
330
A
100
AcDbSymbolTableRecord
100
AcDbDimStyleTableRecord
  2
DIMSTYLE_1
 70
     0
 41
0.1875
 78
     4
140
0.15625
271
     2
272
     2
284
     4
340
11
341
212
342
212
343
212
344
212
  0
DIMSTYLE
105
20D
330
A
100
AcDbSymbolTableRecord
100
AcDbDimStyleTableRecord
  2
DIMSTYLE_2
 70
     0
 41
0.1875
 78
     4
140
0.15625
271
     3
272
     3
284
     4
340
11
341
212
342
212
343
212
344
212
  0
DIMSTYLE
105
20E
330
A
100
AcDbSymbolTableRecord
100
AcDbDimStyleTableRecord
  2
DIMSTYLE_3
 70
     0
 41
0.1875
 78
     4
140
0.15625
271
     2
272
     2
284
     4
340
11
  0
DIMSTYLE
105
20F
330
A
100
AcDbSymbolTableRecord
100
AcDbDimStyleTableRecord
  2
DIMSTYLE_4
 70
     0
 41
0.1875
 78
     4
140
0.15625
271
     2
272
     2
284
     4
340
11
341
212
342
212
343
212
344
212
  0
DIMSTYLE
105
210
330
A
100
AcDbSymbolTableRecord
100
AcDbDimStyleTableRecord
  2
DIMSTYLE_5
 70
     0
 41
0.1875
 78
     4
140
0.15625
179
     2
271
     3
272
     3
284
     4
340
11
341
212
342
212
  0
DIMSTYLE
105
211
330
A
100
AcDbSymbolTableRecord
100
AcDbDimStyleTableRecord
  2
DIMSTYLE_6
 70
     0
 41
0.1875
 78
     4
140
0.15625
271
     2
272
     2
284
     4
340
11
341
212
342
212
343
212
344
212
  0
ENDTAB
  0
TABLE
  2
BLOCK_RECORD
  5
1
330
0
100
AcDbSymbolTable
 70
     1
  0
BLOCK_RECORD
  5
1B
330
1
100
AcDbSymbolTableRecord
100
AcDbBlockTableRecord
  2
*MODEL_SPACE
340
3D3
  0
BLOCK_RECORD
  5
1C
330
1
100
AcDbSymbolTableRecord
100
AcDbBlockTableRecord
  2
*PAPER_SPACE
340
3D4
  0
BLOCK_RECORD
  5
212
330
1
100
AcDbSymbolTableRecord
100
AcDbBlockTableRecord
  2
_CLOSED
340
0
  0
ENDTAB
  0
ENDSEC
  0
SECTION
  2
BLOCKS
  0
BLOCK
  5
1E
330
1B
100
AcDbEntity
  8
0
100
AcDbBlockBegin
  2
*MODEL_SPACE
 70
     0
 10
0.0
 20
0.0
 30
0.0
  3
*MODEL_SPACE
  1

  0
ENDBLK
  5
1F
330
1B
100
AcDbEntity
  8
0
100
AcDbBlockEnd
  0
BLOCK
  5
20
330
1C
100
AcDbEntity
 67
     1
  8
0
100
AcDbBlockBegin
  2
*PAPER_SPACE
 70
     0
 10
0.0
 20
0.0
 30
0.0
  3
*PAPER_SPACE
  1

  0
ENDBLK
  5
21
330
1C
100
AcDbEntity
 67
     1
  8
0
100
AcDbBlockEnd
  0
BLOCK
  5
2C1
330
212
100
AcDbEntity
  8
0
100
AcDbBlockBegin
  2
_CLOSED
 70
     0
 10
0.0
 20
0.0
 30
0.0
  3
_CLOSED
  1

  0
LINE
  5
2C2
330
212
100
AcDbEntity
  8
0
  6
ByBlock
 62
     0
100
AcDbLine
 10
0.0
 20
0.0
 30
0.0
 11
-1.0
 21
0.1666666667
 31
0.0
  0
LINE
  5
2C3
330
212
100
AcDbEntity
  8
0
  6
ByBlock
 62
     0
100
AcDbLine
 10
-1.0
 20
0.1666666667
 30
0.0
 11
-1.0
 21
-0.1666666667
 31
0.0
  0
LINE
  5
2C4
330
212
100
AcDbEntity
  8
0
  6
ByBlock
 62
     0
100
AcDbLine
 10
-1.0
 20
-0.1666666667
 30
0.0
 11
0.0
 21
0.0
 31
0.0
  0
LINE
  5
2C5
330
212
100
AcDbEntity
  8
0
  6
ByBlock
 62
     0
100
AcDbLine
 10
-1.0
 20
0.0
 30
0.0
 11
0.0
 21
0.0
 31
0.0
  0
ENDBLK
  5
2C6
330
212
100
AcDbEntity
  8
0
 62
     0
100
AcDbBlockEnd
  0
ENDSEC
  0
SECTION
  2
ENTITIES
  0
CIRCLE
  5
390
330
1B
100
AcDbEntity
  8
0
  6
Continuous
 62
     7
100
AcDbCircle
 10
0.0
 20
0.0
 30
0.0
 40
2.849968080035624
  0
CIRCLE
  5
391
330
1B
100
AcDbEntity
  8
0
  6
Continuous
 62
     7
100
AcDbCircle
 10
0.0
 20
0.0
 30
0.0
 40
0.3936420000049205
  0
LWPOLYLINE
  5
433
330
1B
100
AcDbEntity
  8
0
 62
     6
100
AcDbPolyline
 90
        8
 70
     1
 43
0.0
 10
1.078899338266559
 20
2.199870824001706
 10
1.078783901304003
 20
2.198363709440932
 10
0.7783424279337315
 20
2.221375928959121
 42
0.9999999999999998
 10
0.7610268835503829
 20
1.99530874484286
 10
1.062449795705394
 20
1.972221352331725
 10
1.097080884472097
 20
2.424355720564248
 10
0.7956579723170845
 20
2.447443113075382
 42
1.006733930650412
 10
0.7784578648962892
 20
2.222883043519895
  0
LWPOLYLINE
  5
434
330
1B
100
AcDbEntity
  8
0
 62
     6
100
AcDbPolyline
 90
        6
 70
     0
 43
0.0
 10
0.3616154752013699
 20
2.025901535191977
 10
0.1736192797206723
 20
2.243040867854853
 10
0.1928121480070576
 20
2.493617898097649
 10
0.1913050334462829
 20
2.493733335060206
 10
0.1721121651598977
 20
2.243156304817409
 10
-0.0452533567206644
 20
2.05706552453828
  0
LWPOLYLINE
  5
435
330
1B
100
AcDbEntity
  8
0
 62
     6
100
AcDbPolyline
 90
        6
 70
     0
 43
0.0
 10
-0.369309037030919
 20
2.081886466759613
 10
-0.3472119370985969
 20
2.370380379988144
 42
0.3178372451957654
 10
-0.436802739947224
 20
2.52016830095175
 42
0.1715728752538373
 10
-0.6879885000764294
 20
2.539407794711005
 42
0.3178372451957713
 10
-0.7993463053311204
 20
2.405011468754846
 10
-0.8214434052634404
 20
2.116517555526314
  0
LWPOLYLINE
  5
49F
330
1B
100
AcDbEntity
  8
0
 62
     6
100
AcDbPolyline
 90
        6
 70
     0
 43
0.0
 10
-1.602697239880834
 20
-1.354900854044114
 10
-1.863588847540087
 20
-1.480011160767026
 42
0.3178372451957654
 10
-1.948513590850311
 20
-1.632493032461183
 42
0.1715728752538373
 10
-1.839582601137175
 20
-1.859646028681606
 42
0.3178372451957713
 10
-1.667513066056503
 20
-1.88888655396377
 10
-1.40662145839725
 20
-1.763776247240856
  0
LWPOLYLINE
  5
4A0
330
1B
100
AcDbEntity
  8
0
 62
     6
100
AcDbPolyline
 90
        6
 70
     0
 43
0.0
 10
-1.919675123030271
 20
-0.6939091924183848
 10
-2.013725203536774
 20
-0.9652883398509322
 10
-2.24032771147509
 20
-1.073955343464832
 10
-2.239674125536811
 20
-1.075318261442154
 10
-2.013071617598495
 20
-0.9666512578282542
 10
-1.743229513526421
 20
-1.061849931544119
  0
LWPOLYLINE
  5
4A1
330
1B
100
AcDbEntity
  8
0
 62
     6
100
AcDbPolyline
 90
        8
 70
     1
 43
0.0
 10
-2.428978878150403
 20
-0.1597077896841563
 10
-2.427615960173082
 20
-0.1590542037458782
 10
-2.297324390188161
 20
-0.4307502617940547
 42
0.9999999999999998
 10
-2.092886693589791
 20
-0.332712371052261
 10
-2.223603881245511
 20
-0.0601287755877689
 10
-2.632479274442256
 20
-0.2562045570713507
 10
-2.501762086786534
 20
-0.5287881525358445
 42
1.006733930650412
 10
-2.298687308165484
 20
-0.431403847732331
  0
LWPOLYLINE
  5
4A2
330
1B
100
AcDbEntity
  8
0
 62
     6
100
AcDbPolyline
 90
        6
 70
     0
 43
0.0
 10
1.992049046009403
 20
-0.7021577480087795
 10
2.230843553736333
 20
-0.8655413545143996
 42
0.3178372451957654
 10
2.405359099895185
 20
-0.8628474037838479
 42
0.1715728752538373
 10
2.547613870311255
 20
-0.6549339013226794
 42
0.3178372451957713
 10
2.486902140485273
 20
-0.4912970500843579
 10
2.24810763275834
 20
-0.3279134435787387
  0
LWPOLYLINE
  5
4A3
330
1B
100
AcDbEntity
  8
0
 62
     6
100
AcDbPolyline
 90
        6
 70
     0
 43
0.0
 10
1.578102416926551
 20
-1.307164478066872
 10
1.860148692913751
 20
-1.252924663297201
 10
2.067558332565682
 20
-1.394834689926098
 10
2.068411861188178
 20
-1.393587208911332
 10
1.861002221536248
 20
-1.251677182282435
 10
1.808525639344735
 20
-0.9703877282874422
  0
LWPOLYLINE
  5
4A4
330
1B
100
AcDbEntity
  8
0
 62
     6
100
AcDbPolyline
 90
        8
 70
     1
 43
0.0
 10
1.370122308981494
 20
-2.01533516961083
 10
1.368874827966727
 20
-2.014481640988334
 10
1.53902473135208
 20
-1.765797802458346
 42
0.9999999999999998
 10
1.351902579137058
 20
-1.637768509083879
 10
1.181196854637767
 20
-1.887264712037237
 10
1.555441159067807
 20
-2.143323298786177
 10
1.726146883567099
 20
-1.893827095832818
 42
1.006733930650412
 10
1.540272212366845
 20
-1.766651331080844
  0
LWPOLYLINE
  5
4F2
330
1B
100
AcDbEntity
  8
0
100
AcDbPolyline
 90
       23
 70
   128
 43
0.0
 10
-2.060383665078028
 20
0.1544609288017004
 42
-1.000000000000003
 10
-1.918404457225193
 20
0.2225384464146496
 10
-0.7849137887927052
 20
-2.141415364348273
 42
0.4142135623730962
 10
-0.6798854260598129
 20
-2.178366209468215
 10
-0.4669166143801369
 20
-2.076249932974862
 42
0.4142135623730917
 10
-0.4299657692601946
 20
-1.97122157024197
 10
-1.598866846768875
 20
0.4665824928464777
 42
-0.7373795796286244
 10
-1.446400528244648
 20
0.6078104197870724
 10
-0.810049035247499
 20
0.2412147352552138
 42
-0.3456628285627208
 10
-0.7738390734834418
 20
0.150972502998457
 42
0.369879398180621
 10
-0.2551320649128999
 20
-0.7413383516396052
 42
-0.2962301049624462
 10
-0.1950849801663605
 20
-0.8236552614147866
 10
-0.1968210000024612
 20
-1.847819891563492
 42
0.4142135623730961
 10
-0.1180926000014771
 20
-1.926548291564474
 10
0.3108870371668109
 20
-1.926548291564475
 42
0.2516053778928242
 10
0.376530802656838
 20
-1.89128317513716
 10
1.843972102045476
 20
0.3250328648244371
 42
-0.9999999999999959
 10
1.975259633025532
 20
0.2381062976770983
 10
0.4542303645745731
 20
-2.059145092081304
 42
-0.183013138783668
 10
0.4089718946656157
 20
-2.091725221705541
 10
-0.7616560613928226
 20
-2.405540658152681
 42
-0.3609563246565318
 10
-0.8530309609003101
 20
-2.36353600376125
 10
-2.060383664913622
 20
0.1544609289082736
  0
LWPOLYLINE
  5
4F4
330
1B
100
AcDbEntity
  8
0
100
AcDbPolyline
 90
       23
 70
   128
 43
0.0
 10
1.5920525957728
 20
1.397912801640287
 10
-1.212536668700364
 20
1.612846090375678
 42
1.000000000000003
 10
-1.224563144042399
 20
1.455849250414782
 10
1.474054574578981
 20
1.249126239838753
 42
-0.2524269523403095
 10
1.536931139298485
 20
1.208737609557503
 10
1.736504110992362
 20
0.8479761699606282
 42
-0.414213562542919
 10
1.705724098301043
 20
0.740976577477266
 10
0.811281356889296
 20
0.2472937417254053
 42
0.2463802607853603
 10
0.7808894400647084
 20
0.1766886258606394
 42
-0.3826487530899307
 10
0.2586041045850977
 20
-0.7443346297909902
 42
0.3206405857218569
 10
0.1985570198385589
 20
-0.8236552614147871
 10
0.1968210000024595
 20
-1.556524811559851
 42
0.7432826377012768
 10
0.4133792482389786
 20
-1.621719736920354
 10
1.875896304490802
 20
0.5871590867988256
 42
-0.4142135623730961
 10
1.985003353484105
 20
0.6093395687327066
 10
2.181934650077151
 20
0.4789497178117097
 42
-0.4142135623730917
 10
2.204115132011031
 20
0.3698426688184063
 10
0.7567877890469344
 20
-1.81609472192217
 42
1.000000000000003
 10
0.8880753200445125
 20
-1.90302128899912
 10
2.466326943941602
 20
0.4806545623660452
 42
0.36115747238374
 10
2.455450176311016
 20
0.5806752231082043
 10
1.633479592301737
 20
1.376625521392925
 42
0.1749691729671617
 10
1.584725832113313
 20
1.398566564204883
  0
LWPOLYLINE
  5
50A
330
1B
100
AcDbEntity
  8
0
  6
Continuous
 62
     7
100
AcDbPolyline
 90
       23
 70
   128
 43
0.0
 10
-1.635015621355653
 20
1.92895503096842
 42
0.3625258146986173
 10
-1.717189728688979
 20
1.870398598947606
 10
-2.017595525748424
 20
0.7231124364533674
 42
0.1855541921052456
 10
-2.012424260129711
 20
0.669131689840342
 10
-0.7805456592493984
 20
-1.877388414421919
 42
1.001757224837972
 10
-0.63856645156097
 20
-1.809310896915542
 10
-1.814131361432743
 20
0.6423909358089679
 42
-0.2452439416743702
 10
-1.811322551608539
 20
0.7157938946159376
 10
-1.609393462097647
 20
1.065545337132376
 42
-0.4142135623730961
 10
-1.501848467601301
 20
1.09436193153204
 10
-0.6281691005405859
 20
0.5906522144272293
 42
0.1968313320439122
 10
-0.5319120540299898
 20
0.5900711906247135
 42
-0.3868384593366372
 10
0.5354540560564082
 20
0.5979701326769637
 42
0.2714497472626455
 10
0.5974950656257179
 20
0.5956114203349792
 10
1.239069763823221
 20
0.9494078345170116
 42
0.5896171678546211
 10
1.239069763823219
 20
1.156077242111145
 10
-1.484019325962014
 20
1.364674840437822
 42
-0.4142135623730959
 10
-1.556504508271445
 20
1.449186498089288
 10
-1.538464795276832
 20
1.684681758216052
 42
-0.4142135623730961
 10
-1.453953137625366
 20
1.757166940525483
 10
1.16004424763065
 20
1.556926126041487
 42
0.9999999999999966
 10
1.172070722972685
 20
1.713922966002383
 10
-1.635015621230584
 20
1.92895503116144
  0
ENDSEC
  0
SECTION
  2
OBJECTS
  0
DICTIONARY
  5
397
330
0
100
AcDbDictionary
281
     1
  3
ACAD_COLOR
350
429
  3
ACAD_GROUP
350
398
  3
ACAD_LAYOUT
350
3D1
  3
ACAD_MATERIAL
350
428
  3
ACAD_MLINESTYLE
350
399
  3
ACAD_PLOTSETTINGS
350
3D2
  3
ACAD_PLOTSTYLENAME
350
3CF
  3
ACAD_TABLESTYLE
350
53D
  3
AcDbVariableDictionary
350
3DC
  3
ASE_INDEX_DICTIONARY
350
3E4
  0
DICTIONARY
  5
429
102
{ACAD_REACTORS
330
397
102
}
330
397
100
AcDbDictionary
281
     1
  0
DICTIONARY
  5
398
102
{ACAD_REACTORS
330
397
102
}
330
397
100
AcDbDictionary
281
     1
  0
DICTIONARY
  5
3D1
102
{ACAD_REACTORS
330
397
102
}
330
397
100
AcDbDictionary
281
     1
  3
Layout1
350
3D4
  3
Model
350
3D3
  0
DICTIONARY
  5
428
102
{ACAD_REACTORS
330
397
102
}
330
397
100
AcDbDictionary
281
     1
  0
DICTIONARY
  5
399
102
{ACAD_REACTORS
330
397
102
}
330
397
100
AcDbDictionary
281
     1
  3
STANDARD
350
39A
  0
DICTIONARY
  5
3D2
102
{ACAD_REACTORS
330
397
102
}
330
397
100
AcDbDictionary
281
     1
  0
ACDBDICTIONARYWDFLT
  5
3CF
102
{ACAD_REACTORS
330
397
102
}
330
397
100
AcDbDictionary
281
     1
  3
Normal
350
3D0
100
AcDbDictionaryWithDefault
340
3D0
  0
DICTIONARY
  5
53D
102
{ACAD_REACTORS
330
397
102
}
330
397
100
AcDbDictionary
281
     1
  3
Standard
350
53E
  0
DICTIONARY
  5
3DC
102
{ACAD_REACTORS
330
397
102
}
330
397
100
AcDbDictionary
281
     1
  3
CTABLESTYLE
350
542
  3
DIMASSOC
350
3DD
  0
DICTIONARY
  5
3E4
102
{ACAD_REACTORS
330
397
102
}
330
397
100
AcDbDictionary
281
     1
  3
ASEBlockHierarchyIndexRecord
350
3E5
1001
DCO15
1040
1527321053.109
  0
LAYOUT
  5
3D4
102
{ACAD_REACTORS
330
3D1
102
}
330
3D1
100
AcDbPlotSettings
  1

  2
PrintsCharming
  4

  6

 40
0.0
 41
0.0
 42
0.0
 43
0.0
 44
0.0
 45
0.0
 46
0.0
 47
0.0
 48
0.0
 49
0.0
140
0.0
141
0.0
142
1.0
143
1.0
 70
   688
 72
     0
 73
     0
 74
     5
  7

 75
    16
147
1.0
 76
     0
 77
     2
 78
   300
148
0.0
149
0.0
100
AcDbLayout
  1
Layout1
 70
     0
 71
     1
 10
0.0
 20
0.0
 11
12.0
 21
9.0
 12
0.0
 22
0.0
 32
0.0
 14
1.000000000000000E+20
 24
1.000000000000000E+20
 34
1.000000000000000E+20
 15
-1.000000000000000E+20
 25
-1.000000000000000E+20
 35
-1.000000000000000E+20
146
0.0
 13
0.0
 23
0.0
 33
0.0
 16
1.0
 26
0.0
 36
0.0
 17
0.0
 27
1.0
 37
0.0
 76
     0
330
1C
  0
LAYOUT
  5
3D3
102
{ACAD_REACTORS
330
3D1
102
}
330
3D1
100
AcDbPlotSettings
  1

  2
PrintsCharming
  4

  6

 40
0.0
 41
0.0
 42
0.0
 43
0.0
 44
0.0
 45
0.0
 46
0.0
 47
0.0
 48
0.0
 49
0.0
140
0.0
141
0.0
142
1.0
143
1.0
 70
  1712
 72
     0
 73
     0
 74
     0
  7

 75
     0
147
1.0
 76
     0
 77
     2
 78
   300
148
0.0
149
0.0
100
AcDbLayout
  1
Model
 70
     1
 71
     0
 10
0.0
 20
0.0
 11
12.0
 21
9.0
 12
0.0
 22
0.0
 32
0.0
 14
0.0
 24
0.0
 34
0.0
 15
0.0
 25
0.0
 35
0.0
146
0.0
 13
0.0
 23
0.0
 33
0.0
 16
1.0
 26
0.0
 36
0.0
 17
0.0
 27
1.0
 37
0.0
 76
     0
330
1B
  0
MLINESTYLE
  5
39A
102
{ACAD_REACTORS
330
399
102
}
330
399
100
AcDbMlineStyle
  2
STANDARD
 70
     0
  3

 62
   256
 51
90.00000000000019
 52
90.00000000000019
 71
     2
 49
0.5
 62
   256
  6
BYLAYER
 49
-0.5
 62
   256
  6
BYLAYER
  0
ACDBPLACEHOLDER
  5
3D0
102
{ACAD_REACTORS
330
3CF
102
}
330
3CF
  0
TABLESTYLE
  5
53E
102
{ACAD_REACTORS
330
53D
102
}
330
53D
100
AcDbTableStyle
  3
Standard
 70
     0
 71
     0
 40
0.06
 41
0.06
280
     0
281
     0
  7
STANDARD
140
0.18
170
     2
 62
     0
 63
     7
283
     0
274
    -2
284
     1
 64
     0
275
    -2
285
     1
 65
     0
276
    -2
286
     1
 66
     0
277
    -2
287
     1
 67
     0
278
    -2
288
     1
 68
     0
279
    -2
289
     1
 69
     0
  7
STANDARD
140
0.25
170
     5
 62
     0
 63
     7
283
     0
274
    -2
284
     1
 64
     0
275
    -2
285
     1
 65
     0
276
    -2
286
     1
 66
     0
277
    -2
287
     1
 67
     0
278
    -2
288
     1
 68
     0
279
    -2
289
     1
 69
     0
  7
STANDARD
140
0.18
170
     5
 62
     0
 63
     7
283
     0
274
    -2
284
     1
 64
     0
275
    -2
285
     1
 65
     0
276
    -2
286
     1
 66
     0
277
    -2
287
     1
 67
     0
278
    -2
288
     1
 68
     0
279
    -2
289
     1
 69
     0
  0
DICTIONARYVAR
  5
542
102
{ACAD_REACTORS
330
3DC
102
}
330
3DC
100
DictionaryVariables
280
     0
  1
STANDARD
  0
DICTIONARYVAR
  5
3DD
102
{ACAD_REACTORS
330
3DC
102
}
330
3DC
100
DictionaryVariables
280
     0
  1
1
  0
XRECORD
  5
3E5
102
{ACAD_REACTORS
330
3E4
102
}
330
3E4
100
AcDbXrecord
280
     1
330
0
330
0
330
0
330
0
330
0
330
0
330
0
330
0
  0
ENDSEC
  0
EOF
