  0
SECTION
  2
HEADER
  9
$ACADVER
  1
AC1018
  9
$ACADMAINTVER
 70
    76
  9
$DWGCODEPAGE
  3
ANSI_1252
  9
$INSBASE
 10
0.0
 20
0.0
 30
0.0
  9
$EXTMIN
 10
1.884178071866666
 20
4.402823457674154
 30
0.0
  9
$EXTMAX
 10
6.365964692419687
 20
7.024602433865699
 30
0.0
  9
$LIMMIN
 10
0.0
 20
0.0
  9
$LIMMAX
 10
11.0
 20
8.5
  9
$ORTHOMODE
 70
     0
  9
$REGENMODE
 70
     1
  9
$FILLMODE
 70
     1
  9
$QTEXTMODE
 70
     0
  9
$MIRRTEXT
 70
     1
  9
$LTSCALE
 40
0.605
  9
$ATTMODE
 70
     1
  9
$TEXTSIZE
 40
0.2
  9
$TRACEWID
 40
0.05
  9
$TEXTSTYLE
  7
STANDARD
  9
$CLAYER
  8
0
  9
$CELTYPE
  6
ByLayer
  9
$CECOLOR
 62
   256
  9
$CELTSCALE
 40
1.0
  9
$DISPSILH
 70
     0
  9
$DIMSCALE
 40
1.0
  9
$DIMASZ
 40
0.1875
  9
$DIMEXO
 40
0.06875
  9
$DIMDLI
 40
0.418
  9
$DIMRND
 40
0.0
  9
$DIMDLE
 40
0.0
  9
$DIMEXE
 40
0.198
  9
$DIMTP
 40
0.01
  9
$DIMTM
 40
0.01
  9
$DIMTXT
 40
0.15625
  9
$DIMCEN
 40
0.099
  9
$DIMTSZ
 40
0.0
  9
$DIMTOL
 70
     1
  9
$DIMLIM
 70
     0
  9
$DIMTIH
 70
     1
  9
$DIMTOH
 70
     1
  9
$DIMSE1
 70
     0
  9
$DIMSE2
 70
     0
  9
$DIMTAD
 70
     0
  9
$DIMZIN
 70
     0
  9
$DIMBLK
  1

  9
$DIMASO
 70
     1
  9
$DIMSHO
 70
     1
  9
$DIMPOST
  1

  9
$DIMAPOST
  1

  9
$DIMALT
 70
     0
  9
$DIMALTD
 70
     2
  9
$DIMALTF
 40
25.4
  9
$DIMLFAC
 40
1.0
  9
$DIMTOFL
 70
     0
  9
$DIMTVP
 40
0.0
  9
$DIMTIX
 70
     0
  9
$DIMSOXD
 70
     0
  9
$DIMSAH
 70
     0
  9
$DIMBLK1
  1

  9
$DIMBLK2
  1

  9
$DIMSTYLE
  2
STANDARD
  9
$DIMCLRD
 70
     0
  9
$DIMCLRE
 70
     0
  9
$DIMCLRT
 70
     0
  9
$DIMTFAC
 40
1.0
  9
$DIMGAP
 40
0.09
  9
$DIMJUST
 70
     0
  9
$DIMSD1
 70
     0
  9
$DIMSD2
 70
     0
  9
$DIMTOLJ
 70
     1
  9
$DIMTZIN
 70
     0
  9
$DIMALTZ
 70
     0
  9
$DIMALTTZ
 70
     0
  9
$DIMUPT
 70
     0
  9
$DIMDEC
 70
     4
  9
$DIMTDEC
 70
     4
  9
$DIMALTU
 70
     2
  9
$DIMALTTD
 70
     2
  9
$DIMTXSTY
  7
STANDARD
  9
$DIMAUNIT
 70
     0
  9
$DIMADEC
 70
     0
  9
$DIMALTRND
 40
0.0
  9
$DIMAZIN
 70
     0
  9
$DIMDSEP
 70
    46
  9
$DIMATFIT
 70
     3
  9
$DIMFRAC
 70
     0
  9
$DIMLDRBLK
  1

  9
$DIMLUNIT
 70
     2
  9
$DIMLWD
 70
    -2
  9
$DIMLWE
 70
    -2
  9
$DIMTMOVE
 70
     0
  9
$LUNITS
 70
     2
  9
$LUPREC
 70
     4
  9
$SKETCHINC
 40
0.1
  9
$FILLETRAD
 40
0.0
  9
$AUNITS
 70
     0
  9
$AUPREC
 70
     0
  9
$MENU
  1
.
  9
$ELEVATION
 40
0.0
  9
$PELEVATION
 40
0.0
  9
$THICKNESS
 40
0.0
  9
$LIMCHECK
 70
     0
  9
$CHAMFERA
 40
0.0
  9
$CHAMFERB
 40
0.0
  9
$CHAMFERC
 40
0.0
  9
$CHAMFERD
 40
0.0
  9
$SKPOLY
 70
     0
  9
$TDCREATE
 40
2452412.586162813
  9
$TDUCREATE
 40
2452412.836162813
  9
$TDUPDATE
 40
2454236.560620278
  9
$TDUUPDATE
 40
2454236.810620278
  9
$TDINDWG
 40
0.0400186111
  9
$TDUSRTIMER
 40
0.0400158102
  9
$USRTIMER
 70
     1
  9
$ANGBASE
 50
0.0
  9
$ANGDIR
 70
     0
  9
$PDMODE
 70
     0
  9
$PDSIZE
 40
0.0
  9
$PLINEWID
 40
0.0
  9
$SPLFRAME
 70
     0
  9
$SPLINETYPE
 70
     6
  9
$SPLINESEGS
 70
     8
  9
$HANDSEED
  5
2DF
  9
$SURFTAB1
 70
     6
  9
$SURFTAB2
 70
     6
  9
$SURFTYPE
 70
     6
  9
$SURFU
 70
     6
  9
$SURFV
 70
     6
  9
$UCSBASE
  2

  9
$UCSNAME
  2

  9
$UCSORG
 10
0.0
 20
0.0
 30
0.0
  9
$UCSXDIR
 10
1.0
 20
0.0
 30
0.0
  9
$UCSYDIR
 10
0.0
 20
1.0
 30
0.0
  9
$UCSORTHOREF
  2

  9
$UCSORTHOVIEW
 70
     0
  9
$UCSORGTOP
 10
0.0
 20
0.0
 30
0.0
  9
$UCSORGBOTTOM
 10
0.0
 20
0.0
 30
0.0
  9
$UCSORGLEFT
 10
0.0
 20
0.0
 30
0.0
  9
$UCSORGRIGHT
 10
0.0
 20
0.0
 30
0.0
  9
$UCSORGFRONT
 10
0.0
 20
0.0
 30
0.0
  9
$UCSORGBACK
 10
0.0
 20
0.0
 30
0.0
  9
$PUCSBASE
  2

  9
$PUCSNAME
  2

  9
$PUCSORG
 10
0.0
 20
0.0
 30
0.0
  9
$PUCSXDIR
 10
1.0
 20
0.0
 30
0.0
  9
$PUCSYDIR
 10
0.0
 20
1.0
 30
0.0
  9
$PUCSORTHOREF
  2

  9
$PUCSORTHOVIEW
 70
     0
  9
$PUCSORGTOP
 10
0.0
 20
0.0
 30
0.0
  9
$PUCSORGBOTTOM
 10
0.0
 20
0.0
 30
0.0
  9
$PUCSORGLEFT
 10
0.0
 20
0.0
 30
0.0
  9
$PUCSORGRIGHT
 10
0.0
 20
0.0
 30
0.0
  9
$PUCSORGFRONT
 10
0.0
 20
0.0
 30
0.0
  9
$PUCSORGBACK
 10
0.0
 20
0.0
 30
0.0
  9
$USERI1
 70
     0
  9
$USERI2
 70
     0
  9
$USERI3
 70
     0
  9
$USERI4
 70
     0
  9
$USERI5
 70
     0
  9
$USERR1
 40
0.0
  9
$USERR2
 40
0.0
  9
$USERR3
 40
0.0
  9
$USERR4
 40
0.0
  9
$USERR5
 40
0.0
  9
$WORLDVIEW
 70
     1
  9
$SHADEDGE
 70
     3
  9
$SHADEDIF
 70
    70
  9
$TILEMODE
 70
     1
  9
$MAXACTVP
 70
    64
  9
$PINSBASE
 10
0.0
 20
0.0
 30
0.0
  9
$PLIMCHECK
 70
     0
  9
$PEXTMIN
 10
1.000000000000000E+20
 20
1.000000000000000E+20
 30
1.000000000000000E+20
  9
$PEXTMAX
 10
-1.000000000000000E+20
 20
-1.000000000000000E+20
 30
-1.000000000000000E+20
  9
$PLIMMIN
 10
0.0
 20
0.0
  9
$PLIMMAX
 10
12.0
 20
9.0
  9
$UNITMODE
 70
     0
  9
$VISRETAIN
 70
     1
  9
$PLINEGEN
 70
     0
  9
$PSLTSCALE
 70
     1
  9
$TREEDEPTH
 70
  3020
  9
$CMLSTYLE
  2
STANDARD
  9
$CMLJUST
 70
     0
  9
$CMLSCALE
 40
1.0
  9
$PROXYGRAPHICS
 70
     1
  9
$MEASUREMENT
 70
     0
  9
$CELWEIGHT
370
    -1
  9
$ENDCAPS
280
     0
  9
$JOINSTYLE
280
     0
  9
$LWDISPLAY
290
     0
  9
$INSUNITS
 70
     0
  9
$HYPERLINKBASE
  1

  9
$STYLESHEET
  1

  9
$XEDIT
290
     0
  9
$CEPSNTYPE
380
     0
  9
$PSTYLEMODE
290
     1
  9
$FINGERPRINTGUID
  2
{95BA25C3-0B8E-4397-B13F-C73546C29C36}
  9
$VERSIONGUID
  2
{D1F2CE63-7E6F-47E7-B321-49E02DF97A3C}
  9
$EXTNAMES
290
     1
  9
$PSVPSCALE
 40
0.0
  9
$OLESTARTUP
290
     0
  9
$SORTENTS
280
   127
  9
$INDEXCTL
280
     0
  9
$HIDETEXT
280
     0
  9
$XCLIPFRAME
290
     0
  9
$HALOGAP
280
     0
  9
$OBSCOLOR
 70
   257
  9
$OBSLTYPE
280
     0
  9
$INTERSECTIONDISPLAY
280
     0
  9
$INTERSECTIONCOLOR
 70
   257
  9
$DIMASSOC
280
     1
  9
$PROJECTNAME
  1

  0
ENDSEC
  0
SECTION
  2
CLASSES
  0
CLASS
  1
ACDBDICTIONARYWDFLT
  2
AcDbDictionaryWithDefault
  3
ObjectDBX Classes
 90
        0
 91
        1
280
     0
281
     0
  0
CLASS
  1
DICTIONARYVAR
  2
AcDbDictionaryVar
  3
ObjectDBX Classes
 90
        0
 91
        2
280
     0
281
     0
  0
CLASS
  1
IMAGE
  2
AcDbRasterImage
  3
ISM
 90
      127
 91
        0
280
     0
281
     1
  0
CLASS
  1
RASTERVARIABLES
  2
AcDbRasterVariables
  3
ISM
 90
        0
 91
        0
280
     0
281
     0
  0
CLASS
  1
IMAGEDEF
  2
AcDbRasterImageDef
  3
ISM
 90
        0
 91
        0
280
     0
281
     0
  0
CLASS
  1
IMAGEDEF_REACTOR
  2
AcDbRasterImageDefReactor
  3
ISM
 90
        1
 91
        0
280
     0
281
     0
  0
CLASS
  1
IDBUFFER
  2
AcDbIdBuffer
  3
ObjectDBX Classes
 90
        0
 91
        0
280
     0
281
     0
  0
CLASS
  1
SPATIAL_FILTER
  2
AcDbSpatialFilter
  3
ObjectDBX Classes
 90
        0
 91
        0
280
     0
281
     0
  0
CLASS
  1
SORTENTSTABLE
  2
AcDbSortentsTable
  3
ObjectDBX Classes
 90
        0
 91
        0
280
     0
281
     0
  0
CLASS
  1
LAYER_INDEX
  2
AcDbLayerIndex
  3
ObjectDBX Classes
 90
        0
 91
        0
280
     0
281
     0
  0
CLASS
  1
SPATIAL_INDEX
  2
AcDbSpatialIndex
  3
ObjectDBX Classes
 90
        0
 91
        0
280
     0
281
     0
  0
CLASS
  1
OBJECT_PTR
  2
CAseDLPNTableRecord
  3
ASE-LPNTableRecord
 90
        1
 91
        0
280
     0
281
     0
  0
CLASS
  1
PLOTSETTINGS
  2
AcDbPlotSettings
  3
ObjectDBX Classes
 90
        0
 91
        0
280
     0
281
     0
  0
CLASS
  1
WIPEOUT
  2
AcDbWipeout
  3
"WipeOut|Product Desc: Object Enabler for WipeOut entity^I^I^I^I^I^I|Company: Autodesk, Inc.^I^I^I^I^I^I|WEB Address: www.autodesk.com"
 90
      127
 91
        0
280
     0
281
     1
  0
CLASS
  1
WIPEOUTVARIABLES
  2
AcDbWipeoutVariables
  3
"WipeOut|Product Desc:     WipeOut Dbx Application|Company:          Autodesk, Inc.|WEB Address:      www.autodesk.com"
 90
        0
 91
        1
280
     0
281
     0
  0
CLASS
  1
RTEXT
  2
RText
  3
RText|AutoCAD Express Tool|expresstools@autodesk.com
 90
     1023
 91
        0
280
     0
281
     1
  0
CLASS
  1
ARCALIGNEDTEXT
  2
AcDbArcAlignedText
  3
ATEXT|AutoCAD Express Tool|expresstools@autodesk.com
 90
        0
 91
        0
280
     0
281
     1
  0
CLASS
  1
DIMASSOC
  2
AcDbDimAssoc
  3
"AcDbDimAssoc|Product Desc:     AcDim ARX App For Dimension|Company:          Autodesk, Inc.|WEB Address:      www.autodesk.com"
 90
        0
 91
        0
280
     0
281
     0
  0
CLASS
  1
TABLESTYLE
  2
AcDbTableStyle
  3
ObjectDBX Classes
 90
     2047
 91
        1
280
     0
281
     0
  0
ENDSEC
  0
SECTION
  2
TABLES
  0
TABLE
  2
VPORT
  5
7A
330
0
100
AcDbSymbolTable
 70
     2
  0
VPORT
  5
2DE
330
7A
100
AcDbSymbolTableRecord
100
AcDbViewportTableRecord
  2
*Active
 70
     0
 10
0.0
 20
0.0
 11
1.0
 21
1.0
 12
3.853479665679908
 22
5.538409719466708
 13
0.0
 23
0.0
 14
1.0
 24
1.0
 15
0.0
 25
0.0
 16
0.0
 26
0.0
 36
1.0
 17
0.0
 27
0.0
 37
0.0
 40
4.476166359675022
 41
1.536679536679536
 42
50.0
 43
0.0
 44
0.0
 50
0.0
 51
0.0
 71
     0
 72
   100
 73
     1
 74
     1
 75
     0
 76
     0
 77
     0
 78
     0
281
     0
 65
     0
110
0.0
120
0.0
130
0.0
111
1.0
121
0.0
131
0.0
112
0.0
122
1.0
132
0.0
 79
     0
146
0.0
  0
ENDTAB
  0
TABLE
  2
LTYPE
  5
77
330
0
100
AcDbSymbolTable
 70
     6
  0
LTYPE
  5
85
330
77
100
AcDbSymbolTableRecord
100
AcDbLinetypeTableRecord
  2
ByBlock
 70
     0
  3

 72
    65
 73
     0
 40
0.0
  0
LTYPE
  5
86
330
77
100
AcDbSymbolTableRecord
100
AcDbLinetypeTableRecord
  2
ByLayer
 70
     0
  3

 72
    65
 73
     0
 40
0.0
  0
LTYPE
  5
87
330
77
100
AcDbSymbolTableRecord
100
AcDbLinetypeTableRecord
  2
CONTINUOUS
 70
     0
  3
Solid line
 72
    65
 73
     0
 40
0.0
  0
LTYPE
  5
95
330
77
100
AcDbSymbolTableRecord
100
AcDbLinetypeTableRecord
  2
CENTER
 70
     0
  3
____ _ ____ _ ____ _ ____ _ ____ _ ____ _ ____
 72
    65
 73
     4
 40
0.6
 49
0.375
 74
     0
 49
-0.075
 74
     0
 49
0.075
 74
     0
 49
-0.075
 74
     0
  0
LTYPE
  5
96
330
77
100
AcDbSymbolTableRecord
100
AcDbLinetypeTableRecord
  2
HIDDEN
 70
     0
  3
- - - - - - - - - - - - - - - - - - - -
 72
    65
 73
     2
 40
0.2
 49
0.1
 74
     0
 49
-0.1
 74
     0
  0
LTYPE
  5
97
330
77
100
AcDbSymbolTableRecord
100
AcDbLinetypeTableRecord
  2
PHANTOM
 70
     0
  3
_____ _ _ _____ _ _ _____ _ _ _____
 72
    65
 73
     6
 40
0.8
 49
0.45
 74
     0
 49
-0.05
 74
     0
 49
0.1
 74
     0
 49
-0.05
 74
     0
 49
0.1
 74
     0
 49
-0.05
 74
     0
  0
LTYPE
  5
98
330
77
100
AcDbSymbolTableRecord
100
AcDbLinetypeTableRecord
  2
DOT
 70
     0
  3
. . . . . . . . . . . . . . . . . . . .
 72
    65
 73
     2
 40
0.2
 49
0.1
 74
     0
 49
-0.1
 74
     0
  0
LTYPE
  5
99
330
77
100
AcDbSymbolTableRecord
100
AcDbLinetypeTableRecord
  2
DASHED
 70
     0
  3
- - - - - - - - - - - - - - - - - - - -
 72
    65
 73
     2
 40
0.2
 49
0.1
 74
     0
 49
-0.1
 74
     0
  0
ENDTAB
  0
TABLE
  2
LAYER
  5
74
330
0
100
AcDbSymbolTable
 70
    11
  0
LAYER
  5
82
330
74
100
AcDbSymbolTableRecord
100
AcDbLayerTableRecord
  2
0
 70
     0
 62
     7
  6
CONTINUOUS
370
    -3
390
81
  0
LAYER
  5
9A
330
74
100
AcDbSymbolTableRecord
100
AcDbLayerTableRecord
  2
DEFAULT_1
 70
     0
 62
     7
  6
CENTER
370
    -3
390
81
  0
LAYER
  5
9B
330
74
100
AcDbSymbolTableRecord
100
AcDbLayerTableRecord
  2
DEFAULT_2
 70
     0
 62
     8
  6
HIDDEN
370
    -3
390
81
  0
LAYER
  5
9C
330
74
100
AcDbSymbolTableRecord
100
AcDbLayerTableRecord
  2
DEFAULT_3
 70
     0
 62
     7
  6
PHANTOM
370
    -3
390
81
  0
LAYER
  5
9D
330
74
100
AcDbSymbolTableRecord
100
AcDbLayerTableRecord
  2
02___PRT_ALL_AXES
 70
     0
 62
     7
  6
CONTINUOUS
370
    -3
390
81
  0
LAYER
  5
9E
330
74
100
AcDbSymbolTableRecord
100
AcDbLayerTableRecord
  2
3_ALL_AXES
 70
     0
 62
     7
  6
CONTINUOUS
370
    -3
390
81
  0
LAYER
  5
9F
330
74
100
AcDbSymbolTableRecord
100
AcDbLayerTableRecord
  2
7_ALL_FEATURES
 70
     0
 62
     7
  6
CONTINUOUS
370
    -3
390
81
  0
LAYER
  5
A0
330
74
100
AcDbSymbolTableRecord
100
AcDbLayerTableRecord
  2
8_ALL_DIMS
 70
     0
 62
     7
  6
CONTINUOUS
370
    -3
390
81
  0
LAYER
  5
A1
330
74
100
AcDbSymbolTableRecord
100
AcDbLayerTableRecord
  2
9_ALL_DRIVEN_DIMS
 70
     0
 62
     7
  6
CONTINUOUS
370
    -3
390
81
  0
LAYER
  5
A2
330
74
100
AcDbSymbolTableRecord
100
AcDbLayerTableRecord
  2
B_ALL_NOTES
 70
     0
 62
     7
  6
CONTINUOUS
370
    -3
390
81
  0
LAYER
  5
A3
330
74
100
AcDbSymbolTableRecord
100
AcDbLayerTableRecord
  2
DEFPOINTS
 70
     0
 62
     7
  6
CONTINUOUS
290
     0
370
    -3
390
81
  0
ENDTAB
  0
TABLE
  2
STYLE
  5
75
330
0
100
AcDbSymbolTable
 70
     2
  0
STYLE
  5
83
330
75
100
AcDbSymbolTableRecord
100
AcDbTextStyleTableRecord
  2
STANDARD
 70
     0
 40
0.0
 41
1.0
 50
0.0
 71
     0
 42
0.2
  3
TXT
  4

  0
STYLE
  5
A4
330
75
100
AcDbSymbolTableRecord
100
AcDbTextStyleTableRecord
  2
TEXTSTYLE_0
 70
     0
 40
0.0
 41
0.8
 50
0.0
 71
     0
 42
0.2
  3
TXT
  4

  0
ENDTAB
  0
TABLE
  2
VIEW
  5
78
330
0
100
AcDbSymbolTable
 70
     0
  0
ENDTAB
  0
TABLE
  2
UCS
  5
79
330
0
100
AcDbSymbolTable
 70
     0
  0
ENDTAB
  0
TABLE
  2
APPID
  5
7B
330
0
100
AcDbSymbolTable
 70
     2
  0
APPID
  5
84
330
7B
100
AcDbSymbolTableRecord
100
AcDbRegAppTableRecord
  2
ACAD
 70
     0
  0
APPID
  5
2DB
330
7B
100
AcDbSymbolTableRecord
100
AcDbRegAppTableRecord
  2
DCO15
 70
     0
  0
ENDTAB
  0
TABLE
  2
DIMSTYLE
  5
7C
330
0
100
AcDbSymbolTable
 70
     2
100
AcDbDimStyleTable
 71
     0
  0
DIMSTYLE
105
A5
330
7C
100
AcDbSymbolTableRecord
100
AcDbDimStyleTableRecord
  2
STANDARD
 70
     0
 47
0.01
 48
0.01
 71
     1
140
0.15625
279
     2
340
83
  0
DIMSTYLE
105
A6
330
7C
100
AcDbSymbolTableRecord
100
AcDbDimStyleTableRecord
  2
DIMSTYLE_1
 70
     0
 47
0.01
 48
0.01
140
0.15625
144
0.6666666667
279
     2
340
83
  0
ENDTAB
  0
TABLE
  2
BLOCK_RECORD
  5
73
330
0
100
AcDbSymbolTable
 70
     2
  0
BLOCK_RECORD
  5
90
330
73
100
AcDbSymbolTableRecord
100
AcDbBlockTableRecord
  2
*MODEL_SPACE
340
93
  0
BLOCK_RECORD
  5
8C
330
73
100
AcDbSymbolTableRecord
100
AcDbBlockTableRecord
  2
*PAPER_SPACE
340
8F
  0
BLOCK_RECORD
  5
A8
330
73
100
AcDbSymbolTableRecord
100
AcDbBlockTableRecord
  2
$MODEL_SPACE
340
0
  0
BLOCK_RECORD
  5
AB
330
73
100
AcDbSymbolTableRecord
100
AcDbBlockTableRecord
  2
$PAPER_SPACE
340
0
  0
ENDTAB
  0
ENDSEC
  0
SECTION
  2
BLOCKS
  0
BLOCK
  5
91
330
90
100
AcDbEntity
  8
0
100
AcDbBlockBegin
  2
*MODEL_SPACE
 70
     0
 10
0.0
 20
0.0
 30
0.0
  3
*MODEL_SPACE
  1

  0
ENDBLK
  5
92
330
90
100
AcDbEntity
  8
0
100
AcDbBlockEnd
  0
BLOCK
  5
8D
330
8C
100
AcDbEntity
 67
     1
  8
0
100
AcDbBlockBegin
  2
*PAPER_SPACE
 70
     0
 10
0.0
 20
0.0
 30
0.0
  3
*PAPER_SPACE
  1

  0
ENDBLK
  5
8E
330
8C
100
AcDbEntity
 67
     1
  8
0
100
AcDbBlockEnd
  0
BLOCK
  5
A9
330
A8
100
AcDbEntity
  8
0
100
AcDbBlockBegin
  2
$MODEL_SPACE
 70
     0
 10
0.0
 20
0.0
 30
0.0
  3
$MODEL_SPACE
  1

  0
ENDBLK
  5
AA
330
A8
100
AcDbEntity
  8
0
100
AcDbBlockEnd
  0
BLOCK
  5
AC
330
AB
100
AcDbEntity
  8
0
100
AcDbBlockBegin
  2
$PAPER_SPACE
 70
     0
 10
0.0
 20
0.0
 30
0.0
  3
$PAPER_SPACE
  1

  0
ENDBLK
  5
AD
330
AB
100
AcDbEntity
  8
0
100
AcDbBlockEnd
  0
ENDSEC
  0
SECTION
  2
ENTITIES
  0
LINE
  5
155
330
90
100
AcDbEntity
  8
0
  6
Continuous
 62
     7
100
AcDbLine
 10
3.471061911333332
 20
6.523988824966663
 30
0.0
 11
2.919865208266664
 21
5.972792121899999
 31
0.0
  0
LINE
  5
156
330
90
100
AcDbEntity
  8
0
  6
Continuous
 62
     7
100
AcDbLine
 10
2.435374774933332
 20
5.488301688566665
 30
0.0
 11
1.884178071866666
 21
4.937104985499997
 31
0.0
  0
LINE
  5
159
330
90
100
AcDbEntity
  8
0
  6
Continuous
 62
     7
100
AcDbLine
 10
1.884178071866666
 20
6.417922807833332
 30
0.0
 11
2.435374774933332
 21
5.866726104766665
 31
0.0
  0
LINE
  5
15A
330
90
100
AcDbEntity
  8
0
  6
Continuous
 62
     7
100
AcDbLine
 10
2.919865208266664
 20
5.38223567143333
 30
0.0
 11
3.471061911333332
 21
4.831038968366665
 31
0.0
  0
LINE
  5
15D
330
90
100
AcDbEntity
  8
0
  6
Continuous
 62
     7
100
AcDbLine
 10
1.990244088999999
 20
4.831038968366665
 30
0.0
 11
2.541440792066666
 21
5.38223567143333
 31
0.0
  0
LINE
  5
15E
330
90
100
AcDbEntity
  8
0
  6
Continuous
 62
     7
100
AcDbLine
 10
3.025931225399998
 20
5.866726104766665
 30
0.0
 11
3.577127928466666
 21
6.417922807833332
 31
0.0
  0
LINE
  5
161
330
90
100
AcDbEntity
  8
0
  6
Continuous
 62
     7
100
AcDbLine
 10
3.577127928466666
 20
4.937104985499997
 30
0.0
 11
3.025931225399998
 21
5.488301688566665
 31
0.0
  0
LINE
  5
162
330
90
100
AcDbEntity
  8
0
  6
Continuous
 62
     7
100
AcDbLine
 10
2.541440792066666
 20
5.972792121899999
 30
0.0
 11
1.990244088999999
 21
6.523988824966663
 31
0.0
  0
ARC
  5
18F
330
90
100
AcDbEntity
  8
0
  6
Continuous
 62
     7
100
AcDbCircle
 10
2.730653000199998
 20
5.677513896699998
 30
0.0
 40
0.3507
100
AcDbArc
 50
327.3485372044
 51
32.65146279560001
  0
ARC
  5
190
330
90
100
AcDbEntity
  8
0
  6
Continuous
 62
     7
100
AcDbCircle
 10
2.730653000199998
 20
5.677513896699998
 30
0.0
 40
0.3507
100
AcDbArc
 50
237.3485372043999
 51
302.6514627956
  0
ARC
  5
191
330
90
100
AcDbEntity
  8
0
  6
Continuous
 62
     7
100
AcDbCircle
 10
2.730653000199998
 20
5.677513896699998
 30
0.0
 40
0.3507
100
AcDbArc
 50
147.3485372044
 51
212.6514627956
  0
ARC
  5
192
330
90
100
AcDbEntity
  8
0
  6
Continuous
 62
     7
100
AcDbCircle
 10
2.730653000199998
 20
5.677513896699998
 30
0.0
 40
0.3507
100
AcDbArc
 50
57.3485372044
 51
122.6514627955999
  0
LINE
  5
1AC
330
90
100
AcDbEntity
  8
0
100
AcDbLine
 10
1.884178071866666
 20
6.417922807833332
 30
0.0
 11
1.990244089049132
 21
6.523988825028289
 31
0.0
  0
LINE
  5
1AE
330
90
100
AcDbEntity
  8
0
100
AcDbLine
 10
3.471061911333332
 20
6.523988824966663
 30
0.0
 11
3.577127928466666
 21
6.417922807833332
 31
0.0
  0
LINE
  5
1B0
330
90
100
AcDbEntity
  8
0
100
AcDbLine
 10
3.577127928466666
 20
4.937104985499997
 30
0.0
 11
3.471061911333332
 21
4.831038968366665
 31
0.0
  0
LINE
  5
1B1
330
90
100
AcDbEntity
  8
0
100
AcDbLine
 10
1.884178071866666
 20
4.937104985499997
 30
0.0
 11
1.990244089049132
 21
4.831038968371706
 31
0.0
  0
LINE
  5
284
330
90
100
AcDbEntity
  8
0
100
AcDbLine
 10
3.744185716228142
 20
5.648712945769927
 30
0.0
 11
4.537339518862694
 21
5.648712945769928
 31
0.0
  0
LINE
  5
285
330
90
100
AcDbEntity
  8
0
100
AcDbLine
 10
3.744185716228142
 20
5.778712945769925
 30
0.0
 11
4.537339518862694
 21
5.778712945769926
 31
0.0
  0
LINE
  5
286
330
90
100
AcDbEntity
  8
0
100
AcDbLine
 10
6.365964692419687
 20
5.648712945769928
 30
0.0
 11
5.572810889785135
 21
5.648712945769929
 31
0.0
  0
LINE
  5
287
330
90
100
AcDbEntity
  8
0
100
AcDbLine
 10
6.365964692419687
 20
5.778712945769926
 30
0.0
 11
5.572810889785135
 21
5.778712945769927
 31
0.0
  0
LINE
  5
288
330
90
100
AcDbEntity
  8
0
100
AcDbLine
 10
5.120075204323915
 20
7.024602433865698
 30
0.0
 11
5.120075204323915
 21
6.231448631231146
 31
0.0
  0
LINE
  5
289
330
90
100
AcDbEntity
  8
0
100
AcDbLine
 10
4.990075204323916
 20
7.024602433865699
 30
0.0
 11
4.990075204323916
 21
6.231448631231147
 31
0.0
  0
LINE
  5
28A
330
90
100
AcDbEntity
  8
0
100
AcDbLine
 10
5.120075204323915
 20
5.195977260308706
 30
0.0
 11
5.120075204323915
 21
4.402823457674154
 31
0.0
  0
LINE
  5
28B
330
90
100
AcDbEntity
  8
0
100
AcDbLine
 10
4.990075204323916
 20
5.195977260308705
 30
0.0
 11
4.990075204323916
 21
4.402823457674154
 31
0.0
  0
ARC
  5
28C
330
90
100
AcDbEntity
  8
0
  6
Continuous
 62
     7
100
AcDbCircle
 10
5.055075204323914
 20
5.713712945769926
 30
0.0
 40
0.3507
100
AcDbArc
 50
57.34853720439999
 51
122.6514627955999
  0
ARC
  5
28D
330
90
100
AcDbEntity
  8
0
  6
Continuous
 62
     7
100
AcDbCircle
 10
5.055075204323914
 20
5.713712945769926
 30
0.0
 40
0.3507
100
AcDbArc
 50
147.3485372044
 51
212.6514627956
  0
ARC
  5
28E
330
90
100
AcDbEntity
  8
0
  6
Continuous
 62
     7
100
AcDbCircle
 10
5.055075204323914
 20
5.713712945769926
 30
0.0
 40
0.3507
100
AcDbArc
 50
237.3485372043999
 51
302.6514627956
  0
ARC
  5
28F
330
90
100
AcDbEntity
  8
0
  6
Continuous
 62
     7
100
AcDbCircle
 10
5.055075204323914
 20
5.713712945769926
 30
0.0
 40
0.3507
100
AcDbArc
 50
327.3485372044
 51
32.65146279559998
  0
ARC
  5
290
330
90
100
AcDbEntity
  8
0
  6
Continuous
 62
     7
100
AcDbCircle
 10
5.055075204323914
 20
5.713712945769926
 30
0.0
 40
1.312499999999998
100
AcDbArc
 50
182.8386664343434
 51
267.1613335656565
  0
ARC
  5
291
330
90
100
AcDbEntity
  8
0
  6
Continuous
 62
     7
100
AcDbCircle
 10
5.055075204323914
 20
5.713712945769926
 30
0.0
 40
1.312499999999998
100
AcDbArc
 50
92.83866643434349
 51
177.1613335656564
  0
ARC
  5
292
330
90
100
AcDbEntity
  8
0
  6
Continuous
 62
     7
100
AcDbCircle
 10
5.055075204323914
 20
5.713712945769926
 30
0.0
 40
1.312499999999998
100
AcDbArc
 50
272.8386664343436
 51
357.1613335656565
  0
ARC
  5
293
330
90
100
AcDbEntity
  8
0
  6
Continuous
 62
     7
100
AcDbCircle
 10
5.055075204323914
 20
5.713712945769926
 30
0.0
 40
1.312499999999998
100
AcDbArc
 50
2.838666434343627
 51
87.1613335656564
  0
ARC
  5
294
330
90
100
AcDbEntity
  8
0
  6
Continuous
 62
     7
100
AcDbCircle
 10
5.055075204323914
 20
5.713712945769926
 30
0.0
 40
0.3817999999999999
100
AcDbArc
 50
162.0367121684998
 51
197.9632878315
  0
ARC
  5
295
330
90
100
AcDbEntity
  8
0
  6
Continuous
 62
     7
100
AcDbCircle
 10
4.625298501123914
 20
5.57437441770326
 30
0.0
 40
0.07
100
AcDbArc
 50
197.9632878315
 51
17.9632878315
  0
ARC
  5
296
330
90
100
AcDbEntity
  8
0
  6
Continuous
 62
     7
100
AcDbCircle
 10
5.055075204323914
 20
5.713712945769926
 30
0.0
 40
0.5217999999999999
100
AcDbArc
 50
187.1558552330444
 51
197.9632878315
  0
ARC
  5
297
330
90
100
AcDbEntity
  8
0
  6
Continuous
 62
     7
100
AcDbCircle
 10
5.055075204323914
 20
5.713712945769926
 30
0.0
 40
0.5217999999999999
100
AcDbArc
 50
252.0367121684999
 51
262.8441447669554
  0
ARC
  5
298
330
90
100
AcDbEntity
  8
0
  6
Continuous
 62
     7
100
AcDbCircle
 10
4.915736676257248
 20
5.283936242569927
 30
0.0
 40
0.07
100
AcDbArc
 50
72.03671216850001
 51
252.0367121684999
  0
ARC
  5
299
330
90
100
AcDbEntity
  8
0
  6
Continuous
 62
     7
100
AcDbCircle
 10
5.055075204323914
 20
5.713712945769926
 30
0.0
 40
0.3817999999999999
100
AcDbArc
 50
252.0367121684999
 51
287.9632878314998
  0
ARC
  5
29A
330
90
100
AcDbEntity
  8
0
  6
Continuous
 62
     7
100
AcDbCircle
 10
5.194413732323914
 20
5.283936242569927
 30
0.0
 40
0.07
100
AcDbArc
 50
287.9632878314998
 51
107.9632878314999
  0
ARC
  5
29B
330
90
100
AcDbEntity
  8
0
  6
Continuous
 62
     7
100
AcDbCircle
 10
5.055075204323914
 20
5.713712945769926
 30
0.0
 40
0.5217999999999999
100
AcDbArc
 50
277.1558552330447
 51
287.9632878314998
  0
ARC
  5
29C
330
90
100
AcDbEntity
  8
0
  6
Continuous
 62
     7
100
AcDbCircle
 10
5.055075204323914
 20
5.713712945769926
 30
0.0
 40
0.5217999999999999
100
AcDbArc
 50
342.0367121685
 51
352.8441447669556
  0
ARC
  5
29D
330
90
100
AcDbEntity
  8
0
  6
Continuous
 62
     7
100
AcDbCircle
 10
5.484851907457248
 20
5.57437441770326
 30
0.0
 40
0.07
100
AcDbArc
 50
162.0367121684998
 51
342.0367121685
  0
ARC
  5
29E
330
90
100
AcDbEntity
  8
0
  6
Continuous
 62
     7
100
AcDbCircle
 10
5.055075204323914
 20
5.713712945769926
 30
0.0
 40
0.3817999999999999
100
AcDbArc
 50
342.0367121685
 51
17.9632878315
  0
ARC
  5
29F
330
90
100
AcDbEntity
  8
0
  6
Continuous
 62
     7
100
AcDbCircle
 10
5.484851907457248
 20
5.853051473769927
 30
0.0
 40
0.07
100
AcDbArc
 50
17.9632878315
 51
197.9632878315
  0
ARC
  5
2A0
330
90
100
AcDbEntity
  8
0
  6
Continuous
 62
     7
100
AcDbCircle
 10
5.055075204323914
 20
5.713712945769926
 30
0.0
 40
0.5217999999999999
100
AcDbArc
 50
7.155855233044838
 51
17.9632878315
  0
ARC
  5
2A1
330
90
100
AcDbEntity
  8
0
  6
Continuous
 62
     7
100
AcDbCircle
 10
5.055075204323914
 20
5.713712945769926
 30
0.0
 40
0.5217999999999999
100
AcDbArc
 50
72.03671216850001
 51
82.84414476695527
  0
ARC
  5
2A2
330
90
100
AcDbEntity
  8
0
  6
Continuous
 62
     7
100
AcDbCircle
 10
5.194413732323914
 20
6.14348964890326
 30
0.0
 40
0.07
100
AcDbArc
 50
252.0367121684999
 51
72.03671216850001
  0
ARC
  5
2A3
330
90
100
AcDbEntity
  8
0
  6
Continuous
 62
     7
100
AcDbCircle
 10
5.055075204323914
 20
5.713712945769926
 30
0.0
 40
0.3817999999999999
100
AcDbArc
 50
72.03671216850001
 51
107.9632878314999
  0
ARC
  5
2A4
330
90
100
AcDbEntity
  8
0
  6
Continuous
 62
     7
100
AcDbCircle
 10
4.915736676257248
 20
6.14348964890326
 30
0.0
 40
0.07
100
AcDbArc
 50
107.9632878314999
 51
287.9632878314998
  0
ARC
  5
2A5
330
90
100
AcDbEntity
  8
0
  6
Continuous
 62
     7
100
AcDbCircle
 10
5.055075204323914
 20
5.713712945769926
 30
0.0
 40
0.5217999999999999
100
AcDbArc
 50
97.15585523304454
 51
107.9632878314999
  0
ARC
  5
2A6
330
90
100
AcDbEntity
  8
0
  6
Continuous
 62
     7
100
AcDbCircle
 10
5.055075204323914
 20
5.713712945769926
 30
0.0
 40
0.5217999999999999
100
AcDbArc
 50
162.0367121684998
 51
172.8441447669553
  0
ARC
  5
2A7
330
90
100
AcDbEntity
  8
0
  6
Continuous
 62
     7
100
AcDbCircle
 10
4.625298501123914
 20
5.853051473769927
 30
0.0
 40
0.07
100
AcDbArc
 50
342.0367121685
 51
162.0367121684998
  0
ARC
  5
2A8
330
90
100
AcDbEntity
  8
0
  6
Continuous
 62
     7
100
AcDbCircle
 10
4.35292471959058
 20
6.680177563236593
 30
0.0
 40
0.07
100
AcDbArc
 50
305.9989460613997
 51
125.9989460614
  0
ARC
  5
2A9
330
90
100
AcDbEntity
  8
0
  6
Continuous
 62
     7
100
AcDbCircle
 10
5.055075204323914
 20
5.713712945769926
 30
0.0
 40
1.124599999999998
100
AcDbArc
 50
125.9989460614
 51
131.1760846351999
  0
ARC
  5
2AA
330
90
100
AcDbEntity
  8
0
  6
Continuous
 62
     7
100
AcDbCircle
 10
5.055075204323914
 20
5.713712945769926
 30
0.0
 40
1.124599999999998
100
AcDbArc
 50
48.82391536479996
 51
54.00105393859998
  0
ARC
  5
2AB
330
90
100
AcDbEntity
  8
0
  6
Continuous
 62
     7
100
AcDbCircle
 10
5.757225688990581
 20
6.680177563236593
 30
0.0
 40
0.07
100
AcDbArc
 50
54.00105393859998
 51
234.0010539386
  0
ARC
  5
2AC
330
90
100
AcDbEntity
  8
0
  6
Continuous
 62
     7
100
AcDbCircle
 10
5.055075204323914
 20
5.713712945769926
 30
0.0
 40
1.264599999999999
100
AcDbArc
 50
35.99894606140001
 51
54.00105393859998
  0
ARC
  5
2AD
330
90
100
AcDbEntity
  8
0
  6
Continuous
 62
     7
100
AcDbCircle
 10
6.021539821790581
 20
6.415863430436593
 30
0.0
 40
0.07
100
AcDbArc
 50
215.9989460614
 51
35.99894606140001
  0
ARC
  5
2AE
330
90
100
AcDbEntity
  8
0
  6
Continuous
 62
     7
100
AcDbCircle
 10
5.055075204323914
 20
5.713712945769926
 30
0.0
 40
1.124599999999998
100
AcDbArc
 50
35.99894606140001
 51
41.17608463519998
  0
ARC
  5
2AF
330
90
100
AcDbEntity
  8
0
  6
Continuous
 62
     7
100
AcDbCircle
 10
5.055075204323914
 20
5.713712945769926
 30
0.0
 40
1.124599999999998
100
AcDbArc
 50
318.8239153648
 51
324.0010539386
  0
ARC
  5
2B0
330
90
100
AcDbEntity
  8
0
  6
Continuous
 62
     7
100
AcDbCircle
 10
6.021539821790581
 20
5.011562461036592
 30
0.0
 40
0.07
100
AcDbArc
 50
324.0010539386
 51
144.0010539385999
  0
ARC
  5
2B1
330
90
100
AcDbEntity
  8
0
  6
Continuous
 62
     7
100
AcDbCircle
 10
5.055075204323914
 20
5.713712945769926
 30
0.0
 40
1.264599999999999
100
AcDbArc
 50
305.9989460613997
 51
324.0010539386
  0
ARC
  5
2B2
330
90
100
AcDbEntity
  8
0
  6
Continuous
 62
     7
100
AcDbCircle
 10
5.757225688990581
 20
4.747248328236594
 30
0.0
 40
0.07
100
AcDbArc
 50
125.9989460614
 51
305.9989460613997
  0
ARC
  5
2B3
330
90
100
AcDbEntity
  8
0
  6
Continuous
 62
     7
100
AcDbCircle
 10
5.055075204323914
 20
5.713712945769926
 30
0.0
 40
1.124599999999998
100
AcDbArc
 50
305.9989460613997
 51
311.1760846352
  0
ARC
  5
2B4
330
90
100
AcDbEntity
  8
0
  6
Continuous
 62
     7
100
AcDbCircle
 10
5.055075204323914
 20
5.713712945769926
 30
0.0
 40
1.124599999999998
100
AcDbArc
 50
228.8239153648
 51
234.0010539386
  0
ARC
  5
2B5
330
90
100
AcDbEntity
  8
0
  6
Continuous
 62
     7
100
AcDbCircle
 10
4.35292471959058
 20
4.747248328236594
 30
0.0
 40
0.07
100
AcDbArc
 50
234.0010539386
 51
54.00105393859998
  0
ARC
  5
2B6
330
90
100
AcDbEntity
  8
0
  6
Continuous
 62
     7
100
AcDbCircle
 10
5.055075204323914
 20
5.713712945769926
 30
0.0
 40
1.264599999999999
100
AcDbArc
 50
215.9989460614
 51
234.0010539386
  0
ARC
  5
2B7
330
90
100
AcDbEntity
  8
0
  6
Continuous
 62
     7
100
AcDbCircle
 10
4.088610586790582
 20
5.011562461036592
 30
0.0
 40
0.07
100
AcDbArc
 50
35.99894606140001
 51
215.9989460614
  0
ARC
  5
2B8
330
90
100
AcDbEntity
  8
0
  6
Continuous
 62
     7
100
AcDbCircle
 10
5.055075204323914
 20
5.713712945769926
 30
0.0
 40
1.124599999999998
100
AcDbArc
 50
215.9989460614
 51
221.1760846351999
  0
ARC
  5
2B9
330
90
100
AcDbEntity
  8
0
  6
Continuous
 62
     7
100
AcDbCircle
 10
5.055075204323914
 20
5.713712945769926
 30
0.0
 40
1.124599999999998
100
AcDbArc
 50
138.8239153647999
 51
144.0010539385999
  0
ARC
  5
2BA
330
90
100
AcDbEntity
  8
0
  6
Continuous
 62
     7
100
AcDbCircle
 10
4.088610586790582
 20
6.415863430436593
 30
0.0
 40
0.07
100
AcDbArc
 50
144.0010539385999
 51
324.0010539386
  0
ARC
  5
2BB
330
90
100
AcDbEntity
  8
0
  6
Continuous
 62
     7
100
AcDbCircle
 10
5.055075204323914
 20
5.713712945769926
 30
0.0
 40
1.264599999999999
100
AcDbArc
 50
125.9989460614
 51
144.0010539385999
  0
LINE
  5
2BC
330
90
100
AcDbEntity
  8
0
  6
Continuous
 62
     7
100
AcDbLine
 10
4.865862996190582
 20
6.008991170969927
 30
0.0
 11
4.314666293123915
 21
6.560187874036592
 31
0.0
  0
LINE
  5
2BD
330
90
100
AcDbEntity
  8
0
  6
Continuous
 62
     7
100
AcDbLine
 10
5.901550132590582
 20
4.973304034569926
 30
0.0
 11
5.350353429523915
 21
5.524500737636594
 31
0.0
  0
LINE
  5
2BE
330
90
100
AcDbEntity
  8
0
  6
Continuous
 62
     7
100
AcDbLine
 10
5.350353429523915
 20
5.902925153836593
 30
0.0
 11
5.901550132590582
 21
6.454121856903261
 31
0.0
  0
LINE
  5
2BF
330
90
100
AcDbEntity
  8
0
  6
Continuous
 62
     7
100
AcDbLine
 10
4.314666293123915
 20
4.867238017436593
 30
0.0
 11
4.865862996190582
 21
5.418434720503259
 31
0.0
  0
LINE
  5
2C0
330
90
100
AcDbEntity
  8
0
  6
Continuous
 62
     7
100
AcDbLine
 10
5.244287412390581
 20
5.418434720503259
 30
0.0
 11
5.795484115457248
 21
4.867238017436593
 31
0.0
  0
LINE
  5
2C1
330
90
100
AcDbEntity
  8
0
  6
Continuous
 62
     7
100
AcDbLine
 10
4.208600275990582
 20
6.454121856903261
 30
0.0
 11
4.759796979057248
 21
5.902925153836593
 31
0.0
  0
LINE
  5
2C2
330
90
100
AcDbEntity
  8
0
  6
Continuous
 62
     7
100
AcDbLine
 10
4.759796979057248
 20
5.524500737636594
 30
0.0
 11
4.208600275990582
 21
4.973304034569926
 31
0.0
  0
LINE
  5
2C3
330
90
100
AcDbEntity
  8
0
  6
Continuous
 62
     7
100
AcDbLine
 10
5.795484115457248
 20
6.560187874036592
 30
0.0
 11
5.244287412390581
 21
6.008991170969927
 31
0.0
  0
LWPOLYLINE
  5
2CD
330
90
100
AcDbEntity
  8
0
 62
     6
100
AcDbPolyline
 90
        6
 70
     0
 43
0.0
 10
4.323092589888853
 20
5.560877759619051
 10
4.323092589888853
 20
5.46393292924411
 42
0.3178372451957654
 10
4.356855743691034
 20
5.416184619228561
 42
0.1715728752538373
 10
4.441263628196509
 20
5.416184619228569
 42
0.3178372451957713
 10
4.475026781998694
 20
5.463932929244109
 10
4.475026781998694
 20
5.560877759619051
  0
LWPOLYLINE
  5
2CE
330
90
100
AcDbEntity
  8
0
 62
     6
100
AcDbPolyline
 90
        6
 70
     0
 43
0.0
 10
4.077474399673814
 20
5.560877759619051
 10
4.145836032427372
 20
5.493146895825194
 10
4.145836032427372
 20
5.408943567509211
 10
4.146342479734405
 20
5.408943567509211
 10
4.146342479734405
 20
5.493146895825194
 10
4.214197665180933
 20
5.560877759619051
  0
LWPOLYLINE
  5
2CF
330
90
100
AcDbEntity
  8
0
 62
     6
100
AcDbPolyline
 90
        8
 70
     1
 43
0.0
 10
3.842297448637259
 20
5.484404216257099
 10
3.842297448637259
 20
5.484910663564131
 10
3.943257109614253
 20
5.484910663564131
 42
0.9999999999999998
 10
3.943257109614252
 20
5.560877759619051
 10
3.841967648207692
 20
5.560877759619051
 10
3.841967648207691
 20
5.408943567509211
 10
3.943257109614252
 20
5.408943567509211
 42
1.006733930650412
 10
3.943257109614252
 20
5.484404216257099
  0
CIRCLE
  5
2D0
330
90
100
AcDbEntity
  8
0
100
AcDbCircle
 10
2.730653000199998
 20
5.677513896699998
 30
0.0
 40
0.125
  0
ENDSEC
  0
SECTION
  2
OBJECTS
  0
DICTIONARY
  5
7E
330
0
100
AcDbDictionary
281
     1
  3
ACAD_COLOR
350
1B4
  3
ACAD_GROUP
350
7F
  3
ACAD_LAYOUT
350
8B
  3
ACAD_MATERIAL
350
1B3
  3
ACAD_MLINESTYLE
350
88
  3
ACAD_PLOTSETTINGS
350
8A
  3
ACAD_PLOTSTYLENAME
350
80
  3
ACAD_TABLESTYLE
350
2D4
  3
ACAD_WIPEOUT_VARS
350
1A2
  3
ACDBVARIABLEDICTIONARY
350
195
  3
ASE_INDEX_DICTIONARY
350
2DA
  0
DICTIONARY
  5
1B4
102
{ACAD_REACTORS
330
7E
102
}
330
7E
100
AcDbDictionary
281
     1
  0
DICTIONARY
  5
7F
102
{ACAD_REACTORS
330
7E
102
}
330
7E
100
AcDbDictionary
281
     1
  0
DICTIONARY
  5
8B
102
{ACAD_REACTORS
330
7E
102
}
330
7E
100
AcDbDictionary
281
     1
  3
LAYOUT1
350
8F
  3
MODEL
350
93
  0
DICTIONARY
  5
1B3
102
{ACAD_REACTORS
330
7E
102
}
330
7E
100
AcDbDictionary
281
     1
  0
DICTIONARY
  5
88
102
{ACAD_REACTORS
330
7E
102
}
330
7E
100
AcDbDictionary
281
     1
  3
STANDARD
350
89
  0
DICTIONARY
  5
8A
102
{ACAD_REACTORS
330
7E
102
}
330
7E
100
AcDbDictionary
281
     1
  0
ACDBDICTIONARYWDFLT
  5
80
102
{ACAD_REACTORS
330
7E
102
}
330
7E
100
AcDbDictionary
281
     1
  3
NORMAL
350
81
100
AcDbDictionaryWithDefault
340
81
  0
DICTIONARY
  5
2D4
102
{ACAD_REACTORS
330
7E
102
}
330
7E
100
AcDbDictionary
281
     1
  3
Standard
350
2D5
  0
WIPEOUTVARIABLES
  5
1A2
330
7E
100
AcDbWipeoutVariables
 70
     1
  0
DICTIONARY
  5
195
102
{ACAD_REACTORS
330
7E
102
}
330
7E
100
AcDbDictionary
281
     1
  3
CTABLESTYLE
350
2DD
  3
DIMASSOC
350
196
  0
DICTIONARY
  5
2DA
102
{ACAD_REACTORS
330
7E
102
}
330
7E
100
AcDbDictionary
281
     1
  3
ASEBlockHierarchyIndexRecord
350
2DC
1001
DCO15
1040
1592641333.592
  0
LAYOUT
  5
8F
102
{ACAD_REACTORS
330
8B
102
}
330
8B
100
AcDbPlotSettings
  1

  2
HP LaserJet 4100 PCL 6
  4

  6

 40
0.0
 41
0.0
 42
0.0
 43
0.0
 44
0.0
 45
0.0
 46
0.0
 47
0.0
 48
0.0
 49
0.0
140
0.0
141
0.0
142
1.0
143
1.0
 70
   688
 72
     0
 73
     0
 74
     5
  7

 75
    16
147
1.0
 76
     0
 77
     2
 78
   300
148
0.0
149
0.0
100
AcDbLayout
  1
LAYOUT1
 70
     1
 71
     1
 10
0.0
 20
0.0
 11
12.0
 21
9.0
 12
0.0
 22
0.0
 32
0.0
 14
1.000000000000000E+20
 24
1.000000000000000E+20
 34
1.000000000000000E+20
 15
-1.000000000000000E+20
 25
-1.000000000000000E+20
 35
-1.000000000000000E+20
146
0.0
 13
0.0
 23
0.0
 33
0.0
 16
1.0
 26
0.0
 36
0.0
 17
0.0
 27
1.0
 37
0.0
 76
     0
330
8C
  0
LAYOUT
  5
93
102
{ACAD_REACTORS
330
8B
102
}
330
8B
100
AcDbPlotSettings
  1

  2
HP LaserJet 4100 PCL 6
  4

  6

 40
0.0
 41
0.0
 42
0.0
 43
0.0
 44
0.0
 45
0.0
 46
0.0
 47
0.0
 48
0.0
 49
0.0
140
0.0
141
0.0
142
1.0
143
1.0
 70
  1712
 72
     0
 73
     0
 74
     0
  7

 75
     0
147
1.0
 76
     0
 77
     2
 78
   300
148
0.0
149
0.0
100
AcDbLayout
  1
MODEL
 70
     1
 71
     0
 10
0.0
 20
0.0
 11
12.0
 21
9.0
 12
0.0
 22
0.0
 32
0.0
 14
0.0
 24
0.0
 34
0.0
 15
0.0
 25
0.0
 35
0.0
146
0.0
 13
0.0
 23
0.0
 33
0.0
 16
1.0
 26
0.0
 36
0.0
 17
0.0
 27
1.0
 37
0.0
 76
     0
330
90
  0
MLINESTYLE
  5
89
102
{ACAD_REACTORS
330
88
102
}
330
88
100
AcDbMlineStyle
  2
STANDARD
 70
     0
  3

 62
   256
 51
90.0
 52
90.0
 71
     2
 49
0.5
 62
   256
  6
BYLAYER
 49
-0.5
 62
   256
  6
BYLAYER
  0
ACDBPLACEHOLDER
  5
81
102
{ACAD_REACTORS
330
80
102
}
330
80
  0
TABLESTYLE
  5
2D5
102
{ACAD_REACTORS
330
2D4
102
}
330
2D4
100
AcDbTableStyle
  3
Standard
 70
     0
 71
     0
 40
0.06
 41
0.06
280
     0
281
     0
  7
STANDARD
140
0.18
170
     2
 62
     0
 63
     7
283
     0
274
    -2
284
     1
 64
     0
275
    -2
285
     1
 65
     0
276
    -2
286
     1
 66
     0
277
    -2
287
     1
 67
     0
278
    -2
288
     1
 68
     0
279
    -2
289
     1
 69
     0
  7
STANDARD
140
0.25
170
     5
 62
     0
 63
     7
283
     0
274
    -2
284
     1
 64
     0
275
    -2
285
     1
 65
     0
276
    -2
286
     1
 66
     0
277
    -2
287
     1
 67
     0
278
    -2
288
     1
 68
     0
279
    -2
289
     1
 69
     0
  7
STANDARD
140
0.18
170
     5
 62
     0
 63
     7
283
     0
274
    -2
284
     1
 64
     0
275
    -2
285
     1
 65
     0
276
    -2
286
     1
 66
     0
277
    -2
287
     1
 67
     0
278
    -2
288
     1
 68
     0
279
    -2
289
     1
 69
     0
  0
DICTIONARYVAR
  5
2DD
102
{ACAD_REACTORS
330
195
102
}
330
195
100
DictionaryVariables
280
     0
  1
STANDARD
  0
DICTIONARYVAR
  5
196
102
{ACAD_REACTORS
330
195
102
}
330
195
100
DictionaryVariables
280
     0
  1
1
  0
XRECORD
  5
2DC
102
{ACAD_REACTORS
330
2DA
102
}
330
2DA
100
AcDbXrecord
280
     1
  0
ENDSEC
  0
EOF
