  0
SECTION
  2
HEADER
  9
$ACADVER
  1
AC1018
  9
$ACADMAINTVER
 70
    76
  9
$DWGCODEPAGE
  3
ANSI_1252
  9
$INSBASE
 10
0.0
 20
0.0
 30
0.0
  9
$EXTMIN
 10
-6.030941066374044
 20
0.0
 30
0.0
  9
$EXTMAX
 10
4.700593402118658
 20
3.866473280855995
 30
0.0
  9
$LIMMIN
 10
0.0
 20
0.0
  9
$LIMMAX
 10
12.0
 20
9.0
  9
$ORTHOMODE
 70
     0
  9
$REGENMODE
 70
     1
  9
$FILLMODE
 70
     1
  9
$QTEXTMODE
 70
     0
  9
$MIRRTEXT
 70
     1
  9
$LTSCALE
 40
1.0
  9
$ATTMODE
 70
     1
  9
$TEXTSIZE
 40
0.1
  9
$TRACEWID
 40
0.05
  9
$TEXTSTYLE
  7
Standard
  9
$CLAYER
  8
0
  9
$CELTYPE
  6
ByLayer
  9
$CECOLOR
 62
     6
  9
$CELTSCALE
 40
1.0
  9
$DISPSILH
 70
     0
  9
$DIMSCALE
 40
1.0
  9
$DIMASZ
 40
0.18
  9
$DIMEXO
 40
0.0625
  9
$DIMDLI
 40
0.38
  9
$DIMRND
 40
0.0
  9
$DIMDLE
 40
0.0
  9
$DIMEXE
 40
0.18
  9
$DIMTP
 40
0.0
  9
$DIMTM
 40
0.0
  9
$DIMTXT
 40
0.18
  9
$DIMCEN
 40
0.09
  9
$DIMTSZ
 40
0.0
  9
$DIMTOL
 70
     0
  9
$DIMLIM
 70
     0
  9
$DIMTIH
 70
     1
  9
$DIMTOH
 70
     1
  9
$DIMSE1
 70
     0
  9
$DIMSE2
 70
     0
  9
$DIMTAD
 70
     0
  9
$DIMZIN
 70
     0
  9
$DIMBLK
  1

  9
$DIMASO
 70
     1
  9
$DIMSHO
 70
     1
  9
$DIMPOST
  1

  9
$DIMAPOST
  1

  9
$DIMALT
 70
     0
  9
$DIMALTD
 70
     2
  9
$DIMALTF
 40
25.4
  9
$DIMLFAC
 40
1.0
  9
$DIMTOFL
 70
     0
  9
$DIMTVP
 40
0.0
  9
$DIMTIX
 70
     0
  9
$DIMSOXD
 70
     0
  9
$DIMSAH
 70
     0
  9
$DIMBLK1
  1

  9
$DIMBLK2
  1

  9
$DIMSTYLE
  2
Standard
  9
$DIMCLRD
 70
     0
  9
$DIMCLRE
 70
     0
  9
$DIMCLRT
 70
     0
  9
$DIMTFAC
 40
1.0
  9
$DIMGAP
 40
0.09
  9
$DIMJUST
 70
     0
  9
$DIMSD1
 70
     0
  9
$DIMSD2
 70
     0
  9
$DIMTOLJ
 70
     1
  9
$DIMTZIN
 70
     0
  9
$DIMALTZ
 70
     0
  9
$DIMALTTZ
 70
     0
  9
$DIMUPT
 70
     0
  9
$DIMDEC
 70
     4
  9
$DIMTDEC
 70
     4
  9
$DIMALTU
 70
     2
  9
$DIMALTTD
 70
     2
  9
$DIMTXSTY
  7
Standard
  9
$DIMAUNIT
 70
     0
  9
$DIMADEC
 70
     0
  9
$DIMALTRND
 40
0.0
  9
$DIMAZIN
 70
     0
  9
$DIMDSEP
 70
    46
  9
$DIMATFIT
 70
     3
  9
$DIMFRAC
 70
     0
  9
$DIMLDRBLK
  1

  9
$DIMLUNIT
 70
     2
  9
$DIMLWD
 70
    -2
  9
$DIMLWE
 70
    -2
  9
$DIMTMOVE
 70
     0
  9
$LUNITS
 70
     2
  9
$LUPREC
 70
     4
  9
$SKETCHINC
 40
0.1
  9
$FILLETRAD
 40
0.1
  9
$AUNITS
 70
     0
  9
$AUPREC
 70
     0
  9
$MENU
  1
.
  9
$ELEVATION
 40
0.0
  9
$PELEVATION
 40
0.0
  9
$THICKNESS
 40
0.0
  9
$LIMCHECK
 70
     0
  9
$CHAMFERA
 40
0.5
  9
$CHAMFERB
 40
0.5
  9
$CHAMFERC
 40
1.0
  9
$CHAMFERD
 40
0.0
  9
$SKPOLY
 70
     0
  9
$TDCREATE
 40
2452982.717722882
  9
$TDUCREATE
 40
2452982.967722882
  9
$TDUPDATE
 40
2454236.542574676
  9
$TDUUPDATE
 40
2454236.792574676
  9
$TDINDWG
 40
0.1323838773
  9
$TDUSRTIMER
 40
0.1323837037
  9
$USRTIMER
 70
     1
  9
$ANGBASE
 50
0.0
  9
$ANGDIR
 70
     0
  9
$PDMODE
 70
     0
  9
$PDSIZE
 40
0.0
  9
$PLINEWID
 40
0.0
  9
$SPLFRAME
 70
     0
  9
$SPLINETYPE
 70
     6
  9
$SPLINESEGS
 70
     8
  9
$HANDSEED
  5
4E2
  9
$SURFTAB1
 70
     6
  9
$SURFTAB2
 70
     6
  9
$SURFTYPE
 70
     6
  9
$SURFU
 70
     6
  9
$SURFV
 70
     6
  9
$UCSBASE
  2

  9
$UCSNAME
  2

  9
$UCSORG
 10
0.0
 20
0.0
 30
0.0
  9
$UCSXDIR
 10
1.0
 20
0.0
 30
0.0
  9
$UCSYDIR
 10
0.0
 20
1.0
 30
0.0
  9
$UCSORTHOREF
  2

  9
$UCSORTHOVIEW
 70
     0
  9
$UCSORGTOP
 10
0.0
 20
0.0
 30
0.0
  9
$UCSORGBOTTOM
 10
0.0
 20
0.0
 30
0.0
  9
$UCSORGLEFT
 10
0.0
 20
0.0
 30
0.0
  9
$UCSORGRIGHT
 10
0.0
 20
0.0
 30
0.0
  9
$UCSORGFRONT
 10
0.0
 20
0.0
 30
0.0
  9
$UCSORGBACK
 10
0.0
 20
0.0
 30
0.0
  9
$PUCSBASE
  2

  9
$PUCSNAME
  2

  9
$PUCSORG
 10
0.0
 20
0.0
 30
0.0
  9
$PUCSXDIR
 10
1.0
 20
0.0
 30
0.0
  9
$PUCSYDIR
 10
0.0
 20
1.0
 30
0.0
  9
$PUCSORTHOREF
  2

  9
$PUCSORTHOVIEW
 70
     0
  9
$PUCSORGTOP
 10
0.0
 20
0.0
 30
0.0
  9
$PUCSORGBOTTOM
 10
0.0
 20
0.0
 30
0.0
  9
$PUCSORGLEFT
 10
0.0
 20
0.0
 30
0.0
  9
$PUCSORGRIGHT
 10
0.0
 20
0.0
 30
0.0
  9
$PUCSORGFRONT
 10
0.0
 20
0.0
 30
0.0
  9
$PUCSORGBACK
 10
0.0
 20
0.0
 30
0.0
  9
$USERI1
 70
     0
  9
$USERI2
 70
     0
  9
$USERI3
 70
     0
  9
$USERI4
 70
     0
  9
$USERI5
 70
     0
  9
$USERR1
 40
0.0
  9
$USERR2
 40
0.0
  9
$USERR3
 40
0.0
  9
$USERR4
 40
0.0
  9
$USERR5
 40
0.0
  9
$WORLDVIEW
 70
     1
  9
$SHADEDGE
 70
     3
  9
$SHADEDIF
 70
    70
  9
$TILEMODE
 70
     1
  9
$MAXACTVP
 70
    64
  9
$PINSBASE
 10
0.0
 20
0.0
 30
0.0
  9
$PLIMCHECK
 70
     0
  9
$PEXTMIN
 10
0.0
 20
0.0
 30
0.0
  9
$PEXTMAX
 10
0.0
 20
0.0
 30
0.0
  9
$PLIMMIN
 10
0.0
 20
0.0
  9
$PLIMMAX
 10
12.0
 20
9.0
  9
$UNITMODE
 70
     0
  9
$VISRETAIN
 70
     1
  9
$PLINEGEN
 70
     0
  9
$PSLTSCALE
 70
     1
  9
$TREEDEPTH
 70
  3020
  9
$CMLSTYLE
  2
Standard
  9
$CMLJUST
 70
     0
  9
$CMLSCALE
 40
1.0
  9
$PROXYGRAPHICS
 70
     1
  9
$MEASUREMENT
 70
     0
  9
$CELWEIGHT
370
    -1
  9
$ENDCAPS
280
     0
  9
$JOINSTYLE
280
     0
  9
$LWDISPLAY
290
     0
  9
$INSUNITS
 70
     1
  9
$HYPERLINKBASE
  1

  9
$STYLESHEET
  1

  9
$XEDIT
290
     1
  9
$CEPSNTYPE
380
     0
  9
$PSTYLEMODE
290
     1
  9
$FINGERPRINTGUID
  2
{FDEAD576-A652-11D2-9A35-0060089B3A3F}
  9
$VERSIONGUID
  2
{F0F7F875-20A1-4F32-8805-4749B6246EFD}
  9
$EXTNAMES
290
     1
  9
$PSVPSCALE
 40
0.0
  9
$OLESTARTUP
290
     0
  9
$SORTENTS
280
   127
  9
$INDEXCTL
280
     0
  9
$HIDETEXT
280
     1
  9
$XCLIPFRAME
290
     0
  9
$HALOGAP
280
     0
  9
$OBSCOLOR
 70
   257
  9
$OBSLTYPE
280
     0
  9
$INTERSECTIONDISPLAY
280
     0
  9
$INTERSECTIONCOLOR
 70
   257
  9
$DIMASSOC
280
     2
  9
$PROJECTNAME
  1

  0
ENDSEC
  0
SECTION
  2
CLASSES
  0
CLASS
  1
ACDBDICTIONARYWDFLT
  2
AcDbDictionaryWithDefault
  3
ObjectDBX Classes
 90
        0
 91
        1
280
     0
281
     0
  0
CLASS
  1
DICTIONARYVAR
  2
AcDbDictionaryVar
  3
ObjectDBX Classes
 90
        0
 91
        3
280
     0
281
     0
  0
CLASS
  1
SORTENTSTABLE
  2
AcDbSortentsTable
  3
ObjectDBX Classes
 90
        0
 91
        1
280
     0
281
     0
  0
CLASS
  1
TABLESTYLE
  2
AcDbTableStyle
  3
ObjectDBX Classes
 90
     2047
 91
        1
280
     0
281
     0
  0
ENDSEC
  0
SECTION
  2
TABLES
  0
TABLE
  2
VPORT
  5
8
330
0
100
AcDbSymbolTable
 70
     2
  0
VPORT
  5
4E1
330
8
100
AcDbSymbolTableRecord
100
AcDbViewportTableRecord
  2
*Active
 70
     0
 10
0.0
 20
0.0
 11
1.0
 21
1.0
 12
2.862990285659589
 22
1.868629966515997
 13
0.0
 23
0.0
 14
0.5
 24
0.5
 15
0.5
 25
0.5
 16
0.0
 26
0.0
 36
1.0
 17
0.0
 27
0.0
 37
0.0
 40
4.443063060700497
 41
1.536679536679536
 42
50.0
 43
0.0
 44
0.0
 50
0.0
 51
0.0
 71
     0
 72
   100
 73
     1
 74
     3
 75
     0
 76
     0
 77
     0
 78
     0
281
     0
 65
     1
110
0.0
120
0.0
130
0.0
111
1.0
121
0.0
131
0.0
112
0.0
122
1.0
132
0.0
 79
     0
146
0.0
  0
ENDTAB
  0
TABLE
  2
LTYPE
  5
5
330
0
100
AcDbSymbolTable
 70
     1
  0
LTYPE
  5
14
330
5
100
AcDbSymbolTableRecord
100
AcDbLinetypeTableRecord
  2
ByBlock
 70
     0
  3

 72
    65
 73
     0
 40
0.0
  0
LTYPE
  5
15
330
5
100
AcDbSymbolTableRecord
100
AcDbLinetypeTableRecord
  2
ByLayer
 70
     0
  3

 72
    65
 73
     0
 40
0.0
  0
LTYPE
  5
16
330
5
100
AcDbSymbolTableRecord
100
AcDbLinetypeTableRecord
  2
Continuous
 70
     0
  3
Solid line
 72
    65
 73
     0
 40
0.0
  0
ENDTAB
  0
TABLE
  2
LAYER
  5
2
330
0
100
AcDbSymbolTable
 70
     1
  0
LAYER
  5
10
330
2
100
AcDbSymbolTableRecord
100
AcDbLayerTableRecord
  2
0
 70
     0
 62
     7
  6
Continuous
370
    -3
390
F
  0
ENDTAB
  0
TABLE
  2
STYLE
  5
3
330
0
100
AcDbSymbolTable
 70
     1
  0
STYLE
  5
11
330
3
100
AcDbSymbolTableRecord
100
AcDbTextStyleTableRecord
  2
Standard
 70
     0
 40
0.0
 41
1.0
 50
0.0
 71
     0
 42
0.1
  3
txt
  4

  0
ENDTAB
  0
TABLE
  2
VIEW
  5
6
330
0
100
AcDbSymbolTable
 70
     0
  0
ENDTAB
  0
TABLE
  2
UCS
  5
7
330
0
100
AcDbSymbolTable
 70
     0
  0
ENDTAB
  0
TABLE
  2
APPID
  5
9
330
0
100
AcDbSymbolTable
 70
     2
  0
APPID
  5
12
330
9
100
AcDbSymbolTableRecord
100
AcDbRegAppTableRecord
  2
ACAD
 70
     0
  0
APPID
  5
436
330
9
100
AcDbSymbolTableRecord
100
AcDbRegAppTableRecord
  2
DCO15
 70
     0
  0
ENDTAB
  0
TABLE
  2
DIMSTYLE
  5
A
330
0
100
AcDbSymbolTable
 70
     1
100
AcDbDimStyleTable
 71
     0
  0
DIMSTYLE
105
27
330
A
100
AcDbSymbolTableRecord
100
AcDbDimStyleTableRecord
  2
Standard
 70
     0
340
11
  0
ENDTAB
  0
TABLE
  2
BLOCK_RECORD
  5
1
330
0
100
AcDbSymbolTable
 70
     1
  0
BLOCK_RECORD
  5
1F
102
{ACAD_XDICTIONARY
360
418
102
}
330
1
100
AcDbSymbolTableRecord
100
AcDbBlockTableRecord
  2
*Model_Space
340
22
  0
BLOCK_RECORD
  5
58
330
1
100
AcDbSymbolTableRecord
100
AcDbBlockTableRecord
  2
*Paper_Space
340
59
  0
BLOCK_RECORD
  5
5D
330
1
100
AcDbSymbolTableRecord
100
AcDbBlockTableRecord
  2
*Paper_Space0
340
5E
  0
ENDTAB
  0
ENDSEC
  0
SECTION
  2
BLOCKS
  0
BLOCK
  5
20
330
1F
100
AcDbEntity
  8
0
100
AcDbBlockBegin
  2
*Model_Space
 70
     0
 10
0.0
 20
0.0
 30
0.0
  3
*Model_Space
  1

  0
ENDBLK
  5
21
330
1F
100
AcDbEntity
  8
0
100
AcDbBlockEnd
  0
BLOCK
  5
5A
330
58
100
AcDbEntity
 67
     1
  8
0
100
AcDbBlockBegin
  2
*Paper_Space
 70
     0
 10
0.0
 20
0.0
 30
0.0
  3
*Paper_Space
  1

  0
ENDBLK
  5
5B
330
58
100
AcDbEntity
 67
     1
  8
0
100
AcDbBlockEnd
  0
BLOCK
  5
5F
330
5D
100
AcDbEntity
 67
     1
  8
0
100
AcDbBlockBegin
  2
*Paper_Space0
 70
     0
 10
0.0
 20
0.0
 30
0.0
  3
*Paper_Space0
  1

  0
ENDBLK
  5
60
330
5D
100
AcDbEntity
 67
     1
  8
0
100
AcDbBlockEnd
  0
ENDSEC
  0
SECTION
  2
ENTITIES
  0
CIRCLE
  5
2F3
330
1F
100
AcDbEntity
  8
0
100
AcDbCircle
 10
2.350279232755108
 20
1.818731440519176
 30
0.0
 40
0.22
  0
LWPOLYLINE
  5
346
330
1F
100
AcDbEntity
  8
0
100
AcDbPolyline
 90
       40
 70
     1
 43
0.0
 10
0.79444717675052
 20
0.6693578259768512
 10
0.79444717675052
 20
0.9607042104890791
 10
0.7246831773609072
 20
0.9607042104890791
 42
-0.4142135682858556
 10
0.6944471773609071
 20
0.9909402110994662
 10
0.6944471802880764
 20
1.135939828996005
 42
-0.3939104697849877
 10
0.7061663882318481
 20
1.148507140646857
 10
1.077591071371464
 20
1.174479684615938
 42
-0.3838640350354148
 10
1.090876471500141
 20
1.164099992453014
 10
1.0955971300191
 20
1.137327807617815
 42
0.4142135623730957
 10
1.153519926553057
 20
1.09676982885055
 10
1.675389251029286
 20
1.188789471159811
 42
0.4142135623730961
 10
1.715947229796551
 20
1.246712267693768
 10
1.711686430759725
 20
1.270876459808362
 42
-0.4452286853085356
 10
1.723214246775945
 20
1.285631391455782
 10
2.086802440698879
 20
1.311055954717113
 42
-0.4348123749609336
 10
2.100279232755108
 20
1.298488642811939
 10
2.100279232755108
 20
1.12526782597685
 10
1.950279232755108
 20
1.12526782597685
 42
0.4142135623730951
 10
1.850279232755108
 20
1.025267825976849
 10
1.850279232755107
 20
0.925267825976851
 10
2.850279232755108
 20
0.925267825976851
 10
2.850279232755108
 20
1.025267825976849
 42
0.4142135623730951
 10
2.750279232755106
 20
1.12526782597685
 10
2.600279232755108
 20
1.12526782597685
 10
2.600279232755108
 20
1.298488642811939
 42
-0.4348123749609336
 10
2.613756024811335
 20
1.311055954717113
 10
2.977344218734269
 20
1.285631391455782
 42
-0.4452286853085348
 10
2.988872034750488
 20
1.270876459808362
 10
2.984611235713662
 20
1.246712267693768
 42
0.4142135623730946
 10
3.025169214480926
 20
1.188789471159811
 10
3.547038538957156
 20
1.09676982885055
 42
0.4142135623730946
 10
3.604961335491113
 20
1.137327807617815
 10
3.609681994010073
 20
1.164099992453014
 42
-0.3838640350354155
 10
3.622967394138749
 20
1.174479684615938
 10
3.994392077278366
 20
1.148507140646857
 42
-0.3939104697849864
 10
4.006111285222138
 20
1.135939828996005
 10
4.006111288149307
 20
0.9909402110994662
 42
-0.4142135682858572
 10
3.975875288149307
 20
0.9607042104890791
 10
3.906111288759694
 20
0.9607042104890791
 10
3.906111288759694
 20
0.6693578259768512
  0
LWPOLYLINE
  5
348
330
1F
100
AcDbEntity
  8
0
100
AcDbPolyline
 90
       35
 70
     1
 43
0.0
 10
4.006111284313893
 20
1.180930463984972
 42
-0.4348123809619563
 10
3.992634492257663
 20
1.168363151825478
 10
3.6290462496704
 20
1.19378771848975
 42
-0.4452286853085345
 10
3.617518433654181
 20
1.20854265013717
 10
3.621779230957427
 20
1.232706832420149
 42
0.4142135623730939
 10
3.581221252190163
 20
1.290629628954105
 10
3.059351927713933
 20
1.382649271263364
 42
0.4142135623730967
 10
3.001429131179977
 20
1.3420912924961
 10
2.996708474394596
 20
1.315319117492518
 42
-0.3838640350354161
 10
2.983423074265921
 20
1.304939425329594
 10
2.61199844087833
 20
1.330911965819675
 42
-0.3939104800262797
 10
2.600279232934558
 20
1.343479277917285
 10
2.600279234849988
 20
1.468874328325413
 42
0.514495741981814
 10
2.600279245538241
 20
2.168588545075354
 10
2.600279245678437
 20
2.177766519980881
 10
2.600279245678437
 20
2.218967813813792
 10
2.600279245678436
 20
2.292188630648881
 42
-0.4348123749609335
 10
2.613756037734665
 20
2.304755942554054
 10
2.977344231657598
 20
2.279331379292725
 42
-0.4452286853085356
 10
2.988872047673818
 20
2.264576447645304
 10
2.984611248636993
 20
2.240412255530709
 42
0.4142135623730965
 10
3.025169227404257
 20
2.182489458996752
 10
3.547038551880486
 20
2.090469816687492
 42
0.4142135623730918
 10
3.604961348414442
 20
2.131027795454755
 10
3.609682006933403
 20
2.157799980289956
 42
-0.3838640350354143
 10
3.622967407062078
 20
2.168179672452882
 10
3.994392089329017
 20
2.142207128544823
 42
-0.3939104814448936
 10
4.00611129727279
 20
2.129639816385329
 10
4.006111294345623
 20
1.98464020987869
 42
-0.4142135564603357
 10
3.975875294345621
 20
1.954404210489078
 10
3.906111288759694
 20
1.954404210489079
 10
3.906111280811904
 20
1.560704208535941
 10
3.906111280811904
 20
1.354404208535942
 10
3.975875281422291
 20
1.354404208535942
 42
-0.414213556460336
 10
4.006111281422293
 20
1.324168209146329
  0
LWPOLYLINE
  5
34C
330
1F
100
AcDbEntity
  8
0
100
AcDbPolyline
 90
       40
 70
     1
 43
0.0
 10
0.7944471767505204
 20
3.012131440519175
 10
3.906111288759694
 20
3.012131440519175
 10
3.906111288759694
 20
2.348104198326019
 10
3.975875301072638
 20
2.348104198326019
 42
-0.4142135682858572
 10
4.006111301072637
 20
2.317868197715633
 10
4.006111298181035
 20
2.174630451247274
 42
-0.4348123689599061
 10
3.992634506124806
 20
2.162063139596421
 10
3.629046262593728
 20
2.18748770632669
 42
-0.4452286853085362
 10
3.617518446577509
 20
2.202242637974113
 10
3.621779243880754
 20
2.226406820257089
 42
0.4142135623730971
 10
3.581221265113491
 20
2.284329616791046
 10
3.059351940637263
 20
2.376349259100306
 42
0.4142135623730951
 10
3.001429144103306
 20
2.335791280333042
 10
2.996708487317926
 20
2.30901910532946
 42
-0.3838640350354146
 10
2.98342308718925
 20
2.298639413166536
 10
2.611998453622208
 20
2.324611953669164
 42
-0.3939104756149426
 10
2.600279245678436
 20
2.337179265574338
 10
2.600279245678436
 20
2.512131440519175
 10
2.750279245678436
 20
2.512131440519175
 42
0.4142135623730951
 10
2.850279245678436
 20
2.612131440519176
 10
2.850279245678436
 20
2.712131440519175
 10
1.850279245678436
 20
2.712131440519175
 10
1.850279245678436
 20
2.612131440519176
 42
0.4142135623730951
 10
1.950279245678436
 20
2.512131440519175
 10
2.100279245678436
 20
2.512131440519175
 10
2.100279245678436
 20
2.337179265574337
 42
-0.3939104756149421
 10
2.088560037734664
 20
2.324611953669164
 10
1.717135404167624
 20
2.298639413166535
 42
-0.3838640350354161
 10
1.703850004038946
 20
2.30901910532946
 10
1.699129347253566
 20
2.335791280333042
 42
0.4142135623730961
 10
1.64120655071961
 20
2.376349259100305
 10
1.119337226243382
 20
2.284329616791048
 42
0.414213562373096
 10
1.078779247476117
 20
2.226406820257091
 10
1.083040044779363
 20
2.202242637974111
 42
-0.4452286853085364
 10
1.071512228763145
 20
2.18748770632669
 10
0.7079239852320666
 20
2.162063139596423
 42
-0.4348123689599092
 10
0.6944471931758382
 20
2.174630451247274
 10
0.6944471902842366
 20
2.317868197715633
 42
-0.4142135682858551
 10
0.7246831902842365
 20
2.348104198326019
 10
0.7944471767505201
 20
2.348104198326019
  0
LWPOLYLINE
  5
34E
330
1F
100
AcDbEntity
  8
0
100
AcDbPolyline
 90
       33
 70
     1
 43
0.0
 10
0.7079239732525501
 20
1.168363151825478
 42
-0.4348123809619575
 10
0.6944471811963215
 20
1.180930463984972
 10
0.694447184087923
 20
1.324168209146329
 42
-0.4142135564603347
 10
0.7246831840879229
 20
1.354404208535942
 10
0.7944471846983101
 20
1.354404208535942
 10
0.7944471846983101
 20
1.560704208535941
 10
0.7944471767505201
 20
1.954404210489079
 10
0.7246831970112521
 20
1.954404210489078
 42
-0.4142135564603345
 10
0.6944471970112521
 20
1.98464020987869
 10
0.6944471940840831
 20
2.129639816385328
 42
-0.3939104814448968
 10
0.7061664020278547
 20
2.142207128544823
 10
1.077591084294793
 20
2.16817967245288
 42
-0.3838640350354141
 10
1.09087648442347
 20
2.157799980289956
 10
1.09559714294243
 20
2.131027795454756
 42
0.4142135623730946
 10
1.153519939476386
 20
2.090469816687492
 10
1.675389263952615
 20
2.182489458996752
 42
0.4142135623730957
 10
1.715947242719879
 20
2.240412255530709
 10
1.711686443683055
 20
2.264576447645304
 42
-0.4452286853085367
 10
1.723214259699274
 20
2.279331379292725
 10
2.086802440698879
 20
2.304755941650368
 42
-0.4348123749609333
 10
2.100279232755108
 20
2.292188629745193
 10
2.100279232755108
 20
2.168588554209895
 42
0.5144957554275269
 10
2.100279232755108
 20
1.468874326828458
 10
2.100279232755108
 20
1.343479277737396
 42
-0.3939104756149426
 10
2.088560024811335
 20
1.330911965832222
 10
1.717135391244295
 20
1.304939425329594
 42
-0.3838640350354161
 10
1.703849991115617
 20
1.315319117492518
 10
1.699129334330238
 20
1.3420912924961
 42
0.4142135623730961
 10
1.64120653779628
 20
1.382649271263364
 10
1.119337213320052
 20
1.290629628954105
 42
0.4142135623730946
 10
1.078779234552788
 20
1.232706832420149
 10
1.083040031856034
 20
1.20854265013717
 42
-0.4452286853085362
 10
1.071512215839814
 20
1.19378771848975
  0
LWPOLYLINE
  5
37A
330
1F
100
AcDbEntity
  8
0
100
AcDbPolyline
 90
        6
 70
     1
 43
0.0
 10
4.200555280811903
 20
1.954404208535941
 10
4.200555247019218
 20
2.348104196372883
 10
4.083591292742727
 20
2.348104196372883
 42
0.4142135527587807
 10
4.053355292742725
 20
2.31786819736539
 10
4.053355281804409
 20
1.984640209528448
 42
0.4142135719874088
 10
4.083591281804411
 20
1.954404208535941
  0
LWPOLYLINE
  5
37E
330
1F
100
AcDbEntity
  8
0
100
AcDbPolyline
 90
        6
 70
     1
 43
0.0
 10
4.053355280811905
 20
1.324168208535942
 10
4.053355280811905
 20
0.9909402085359426
 42
0.4142135623730951
 10
4.083591280811906
 20
0.9607042085359426
 10
4.200555280811904
 20
0.9607042085359426
 10
4.200599280811904
 20
1.354404208535942
 10
4.083591280811904
 20
1.354404208535942
 42
0.4142135623730951
  0
LWPOLYLINE
  5
383
330
1F
100
AcDbEntity
  8
0
100
AcDbPolyline
 90
        6
 70
     1
 43
0.0
 10
0.4999591846983101
 20
1.354404208535942
 10
0.5000031846983101
 20
0.9607042085359426
 10
0.61696718469831
 20
0.9607042085359426
 42
0.4142135623730951
 10
0.6472031846983101
 20
0.9909402085359426
 10
0.6472031846983101
 20
1.324168208535942
 42
0.4142135623730951
 10
0.61696718469831
 20
1.354404208535942
  0
LWPOLYLINE
  5
387
330
1F
100
AcDbEntity
  8
0
100
AcDbPolyline
 90
        6
 70
     1
 43
0.0
 10
0.6472031565691762
 20
2.317868190123299
 42
0.4142135050898327
 10
0.6169671590675616
 20
2.348104186708209
 10
0.5000031689261985
 20
2.348104196372883
 10
0.5000031689261985
 20
1.954404196372884
 10
0.6169671942065489
 20
1.954404196372884
 42
0.4142135954547439
 10
0.6472031942065489
 20
1.984640199787973
  0
LWPOLYLINE
  5
38E
330
1F
100
AcDbEntity
  8
0
100
AcDbPolyline
 90
        4
 70
     1
 43
0.0
 10
4.700539988456331
 20
0.0000000000000002
 10
4.700593402118658
 20
3.512131440519175
 10
-0.0000342576801997
 20
3.512131440519175
 10
0.0
 20
0.0
  0
LWPOLYLINE
  5
3D1
330
1F
100
AcDbEntity
  8
0
100
AcDbPolyline
 90
        2
 70
     0
 43
0.0
 10
2.850279232755108
 20
1.22526782597685
 10
2.850279232755108
 20
1.22526782597685
  0
LWPOLYLINE
  5
41C
330
1F
100
AcDbEntity
  8
0
 62
     6
370
    90
100
AcDbPolyline
 90
        8
 70
     1
 43
0.0
 10
0.7584723646486468
 20
0.5438384440633845
 42
-1.000657922659133
 10
0.7584723646486468
 20
0.3348374612777819
 10
0.5613726245203946
 20
0.3348374612777819
 10
0.5613726245203946
 20
0.3346999999999995
 10
0.7584723646486467
 20
0.3346999999999995
 42
-1.0
 10
0.7584723646486468
 20
0.125561555936615
 10
0.5613126806241952
 20
0.125561555936615
 10
0.5613126806241952
 20
0.5438384440633839
  0
CIRCLE
  5
444
330
1F
100
AcDbEntity
  8
0
 62
     6
370
    90
100
AcDbCircle
 10
2.350270906982614
 20
0.3346999999999995
 30
0.0
 40
0.2318705240090905
  0
POINT
  5
44D
330
1F
100
AcDbEntity
  8
0
 62
     6
100
AcDbPoint
 10
2.41975941420924
 20
0.3346999999999995
 30
0.0
  0
SPLINE
  5
475
330
1F
100
AcDbEntity
  8
0
 62
     6
100
AcDbSpline
210
0.0
220
0.0
230
1.0
 70
     8
 71
     3
 72
    13
 73
     9
 74
     0
 42
0.0000000001
 43
0.0000000001
 40
0.0
 40
0.0
 40
0.0
 40
0.0
 40
0.0285342749272568
 40
0.1150556133837758
 40
0.2102378539966785
 40
0.3054200946095812
 40
0.3919414330661003
 40
0.4204757079933569
 40
0.4204757079933571
 40
0.4204757079933571
 40
0.4204757079933571
 10
2.293041434637937
 20
0.5593969679354843
 30
0.0
 10
2.292057975285962
 20
0.5470589243314569
 30
0.0
 10
2.294698492687163
 20
0.4973095902959488
 30
0.0
 10
2.368498622761631
 20
0.4414740695976416
 30
0.0
 10
2.446447823389443
 20
0.3345542941290434
 30
0.0
 10
2.369123477097287
 20
0.2284822375048931
 30
0.0
 10
2.286474607027649
 20
0.1708328506647548
 30
0.0
 10
2.293167580865598
 20
0.1231993593816208
 30
0.0
 10
2.293041434637939
 20
0.1100030320645147
 30
0.0
  0
LWPOLYLINE
  5
47D
330
1F
100
AcDbEntity
  8
0
 62
     6
100
AcDbPolyline
 90
        2
 70
     0
 43
0.0
 10
2.988646913038858
 20
0.5438384440633839
 42
0.9999999999999998
 10
2.988646913038858
 20
0.1255615559366151
  0
SPLINE
  5
47F
330
1F
100
AcDbEntity
  8
0
 62
     6
100
AcDbSpline
210
0.0
220
0.0
230
1.0
 70
     8
 71
     3
 72
     9
 73
     5
 74
     3
 42
0.0000000001
 43
0.0000000001
 44
0.0000000001
 40
0.0
 40
0.0
 40
0.0
 40
0.0
 40
0.1175774140862424
 40
0.2210353053794451
 40
0.2210353053794451
 40
0.2210353053794451
 40
0.2210353053794451
 10
2.988646913038858
 20
0.5438384440633839
 30
0.0
 10
3.028899451489618
 20
0.5406068021660984
 30
0.0
 10
3.104570720482109
 20
0.5345315966583505
 30
0.0
 10
3.161665790603382
 20
0.4849775668966826
 30
0.0
 10
3.188389736571398
 20
0.4617832839045523
 30
0.0
 11
2.988646913038858
 21
0.5438384440633839
 31
0.0
 11
3.104148213619971
 21
0.5218407653840506
 31
0.0
 11
3.188389736571398
 21
0.4617832839045523
 31
0.0
  0
SPLINE
  5
480
330
1F
100
AcDbEntity
  8
0
 62
     6
100
AcDbSpline
210
0.0
220
0.0
230
1.0
 70
     8
 71
     3
 72
     9
 73
     5
 74
     3
 42
0.0000000001
 43
0.0000000001
 44
0.0000000001
 40
0.0
 40
0.0
 40
0.0
 40
0.0
 40
0.1175774140862424
 40
0.2210353053794451
 40
0.2210353053794451
 40
0.2210353053794451
 40
0.2210353053794451
 10
2.988646913038858
 20
0.1255615559366151
 30
0.0
 10
3.028899451489618
 20
0.1287931978339006
 30
0.0
 10
3.10457072048211
 20
0.1348684033416488
 30
0.0
 10
3.161665790603382
 20
0.1844224331033166
 30
0.0
 10
3.188389736571398
 20
0.2076167160954468
 30
0.0
 11
2.988646913038858
 21
0.1255615559366151
 31
0.0
 11
3.104148213619971
 21
0.1475592346159486
 31
0.0
 11
3.188389736571398
 21
0.2076167160954468
 31
0.0
  0
LWPOLYLINE
  5
48B
330
1F
100
AcDbEntity
  8
0
 62
     6
100
AcDbPolyline
 90
        5
 70
     0
 43
0.0
 10
3.858883527778511
 20
0.125561555936615
 10
3.805468110489638
 20
0.5438384440633839
 10
3.617451777706051
 20
0.1723162136224282
 10
3.429435444922464
 20
0.5438384440633839
 10
3.376020027633591
 20
0.125561555936615
  0
LWPOLYLINE
  5
49A
330
1F
100
AcDbEntity
  8
0
 62
     6
100
AcDbPolyline
 90
        5
 70
     0
 43
0.0
 10
4.058374071985569
 20
0.125561555936615
 10
4.058374071985569
 20
0.5438384440633839
 10
4.205972268336528
 20
0.5438384440633839
 42
-0.9635605050050674
 10
4.205972268336528
 20
0.3423264368729637
 10
4.058374071985569
 20
0.3423264368729637
  0
LWPOLYLINE
  5
4AA
330
1F
100
AcDbEntity
  8
0
 62
     6
370
    90
100
AcDbPolyline
 90
        6
 70
     0
 43
0.0
 10
1.039814254841511
 20
0.5438384440633838
 10
1.208359662631304
 20
0.3528068702855434
 10
1.208359662631304
 20
0.1256532553654232
 10
1.20844934613492
 20
0.1256532553654232
 10
1.20844934613492
 20
0.3528068702855434
 10
1.37981503126506
 20
0.5438384440633843
  0
LWPOLYLINE
  5
4AF
330
1F
100
AcDbEntity
  8
0
 62
     6
370
    90
100
AcDbPolyline
 90
        6
 70
     0
 43
0.0
 10
1.564034993390351
 20
0.5438384440633839
 10
1.564034993390351
 20
0.2771926881120032
 42
0.164894797976406
 10
1.589924665439558
 20
0.2008236196108862
 42
0.4936438311312095
 10
1.894849224110965
 20
0.2008236196108934
 42
0.1648947979763951
 10
1.920738896160168
 20
0.2771926881120061
 10
1.920738896160168
 20
0.5438384440633839
  0
LWPOLYLINE
  5
4B4
330
1F
100
AcDbEntity
  8
0
 62
     6
100
AcDbPolyline
 90
        2
 70
     0
 43
0.0
 10
4.121806934839832
 20
0.3423264368729637
 10
4.320153349410191
 20
0.125561555936615
  0
MTEXT
  5
4C7
330
1F
100
AcDbEntity
  8
0
 62
     6
100
AcDbMText
 10
-6.030941066374043
 20
3.866473280855995
 30
0.0
 40
0.2490012872541398
 41
5.023741248902737
 71
     1
 72
     5
  1
\A1;*Note:\PIn order for the logo to work, you need to use a {\H0.75x;\S3/32;}" end mill or smaller. The {\H0.75x;\S1/8;}" is too big.
 73
     1
 44
1.0
  0
ENDSEC
  0
SECTION
  2
OBJECTS
  0
DICTIONARY
  5
C
330
0
100
AcDbDictionary
281
     1
  3
ACAD_COLOR
350
343
  3
ACAD_GROUP
350
D
  3
ACAD_LAYOUT
350
1A
  3
ACAD_MATERIAL
350
342
  3
ACAD_MLINESTYLE
350
17
  3
ACAD_PLOTSETTINGS
350
19
  3
ACAD_PLOTSTYLENAME
350
E
  3
ACAD_TABLESTYLE
350
4DB
  3
AcDbVariableDictionary
350
66
  3
ASE_INDEX_DICTIONARY
350
435
  0
DICTIONARY
  5
418
330
1F
100
AcDbDictionary
280
     1
281
     1
  3
ACAD_SORTENTS
360
419
  0
DICTIONARY
  5
343
102
{ACAD_REACTORS
330
C
102
}
330
C
100
AcDbDictionary
281
     1
  0
DICTIONARY
  5
D
102
{ACAD_REACTORS
330
C
102
}
330
C
100
AcDbDictionary
281
     1
  0
DICTIONARY
  5
1A
102
{ACAD_REACTORS
330
C
102
}
330
C
100
AcDbDictionary
281
     1
  3
Layout1
350
59
  3
Layout2
350
5E
  3
Model
350
22
  0
DICTIONARY
  5
342
102
{ACAD_REACTORS
330
C
102
}
330
C
100
AcDbDictionary
281
     1
  0
DICTIONARY
  5
17
102
{ACAD_REACTORS
330
C
102
}
330
C
100
AcDbDictionary
281
     1
  3
Standard
350
18
  0
DICTIONARY
  5
19
102
{ACAD_REACTORS
330
C
102
}
330
C
100
AcDbDictionary
281
     1
  0
ACDBDICTIONARYWDFLT
  5
E
102
{ACAD_REACTORS
330
C
102
}
330
C
100
AcDbDictionary
281
     1
  3
Normal
350
F
100
AcDbDictionaryWithDefault
340
F
  0
DICTIONARY
  5
4DB
102
{ACAD_REACTORS
330
C
102
}
330
C
100
AcDbDictionary
281
     1
  3
Standard
350
4DC
  0
DICTIONARY
  5
66
102
{ACAD_REACTORS
330
C
102
}
330
C
100
AcDbDictionary
281
     1
  3
CTABLESTYLE
350
4E0
  3
DIMASSOC
350
67
  3
HIDETEXT
350
6B
  0
DICTIONARY
  5
435
102
{ACAD_REACTORS
330
C
102
}
330
C
100
AcDbDictionary
281
     1
  3
ASEBlockHierarchyIndexRecord
350
437
1001
DCO15
1040
1527322917.843
  0
SORTENTSTABLE
  5
419
102
{ACAD_REACTORS
330
418
102
}
330
418
100
AcDbSortentsTable
330
1F
331
3D1
  5
401
331
37E
  5
383
331
37A
  5
37E
331
387
  5
38E
331
34E
  5
37A
331
34C
  5
34E
331
2F3
  5
346
331
383
  5
387
331
348
  5
34C
331
346
  5
348
331
38E
  5
3D1
  0
LAYOUT
  5
59
102
{ACAD_REACTORS
330
1A
102
}
330
1A
100
AcDbPlotSettings
  1

  2
None
  4

  6

 40
0.0
 41
0.0
 42
0.0
 43
0.0
 44
0.0
 45
0.0
 46
0.0
 47
0.0
 48
0.0
 49
0.0
140
0.0
141
0.0
142
1.0
143
1.0
 70
   688
 72
     0
 73
     0
 74
     5
  7

 75
    16
147
1.0
 76
     0
 77
     2
 78
   300
148
0.0
149
0.0
100
AcDbLayout
  1
Layout1
 70
     1
 71
     1
 10
0.0
 20
0.0
 11
12.0
 21
9.0
 12
0.0
 22
0.0
 32
0.0
 14
0.0
 24
0.0
 34
0.0
 15
0.0
 25
0.0
 35
0.0
146
0.0
 13
0.0
 23
0.0
 33
0.0
 16
1.0
 26
0.0
 36
0.0
 17
0.0
 27
1.0
 37
0.0
 76
     0
330
58
  0
LAYOUT
  5
5E
102
{ACAD_REACTORS
330
1A
102
}
330
1A
100
AcDbPlotSettings
  1

  2
None
  4

  6

 40
0.0
 41
0.0
 42
0.0
 43
0.0
 44
0.0
 45
0.0
 46
0.0
 47
0.0
 48
0.0
 49
0.0
140
0.0
141
0.0
142
1.0
143
1.0
 70
   688
 72
     0
 73
     0
 74
     5
  7

 75
    16
147
1.0
 76
     0
 77
     2
 78
   300
148
0.0
149
0.0
100
AcDbLayout
  1
Layout2
 70
     1
 71
     2
 10
0.0
 20
0.0
 11
12.0
 21
9.0
 12
0.0
 22
0.0
 32
0.0
 14
0.0
 24
0.0
 34
0.0
 15
0.0
 25
0.0
 35
0.0
146
0.0
 13
0.0
 23
0.0
 33
0.0
 16
1.0
 26
0.0
 36
0.0
 17
0.0
 27
1.0
 37
0.0
 76
     0
330
5D
  0
LAYOUT
  5
22
102
{ACAD_REACTORS
330
1A
102
}
330
1A
100
AcDbPlotSettings
  1

  2
none_device
  4
ANSI_A_(8.50_x_11.00_Inches)
  6

 40
6.349999904632567
 41
19.04999923706055
 42
6.350006103515625
 43
19.04998779296875
 44
215.8999938964844
 45
279.3999938964844
 46
0.0
 47
0.0
 48
0.0
 49
0.0
140
0.0
141
0.0
142
1.0
143
2.584895464708373
 70
 11952
 72
     0
 73
     1
 74
     0
  7

 75
     0
147
0.3868628397755418
 76
     0
 77
     2
 78
   300
148
0.0
149
0.0
100
AcDbLayout
  1
Model
 70
     1
 71
     0
 10
0.0
 20
0.0
 11
12.0
 21
9.0
 12
0.0
 22
0.0
 32
0.0
 14
0.0
 24
0.0
 34
0.0
 15
0.0
 25
0.0
 35
0.0
146
0.0
 13
0.0
 23
0.0
 33
0.0
 16
1.0
 26
0.0
 36
0.0
 17
0.0
 27
1.0
 37
0.0
 76
     0
330
1F
  0
MLINESTYLE
  5
18
102
{ACAD_REACTORS
330
17
102
}
330
17
100
AcDbMlineStyle
  2
STANDARD
 70
     0
  3

 62
   256
 51
90.0
 52
90.0
 71
     2
 49
0.5
 62
   256
  6
BYLAYER
 49
-0.5
 62
   256
  6
BYLAYER
  0
ACDBPLACEHOLDER
  5
F
102
{ACAD_REACTORS
330
E
102
}
330
E
  0
TABLESTYLE
  5
4DC
102
{ACAD_REACTORS
330
4DB
102
}
330
4DB
100
AcDbTableStyle
  3
Standard
 70
     0
 71
     0
 40
0.06
 41
0.06
280
     0
281
     0
  7
Standard
140
0.18
170
     2
 62
     0
 63
     7
283
     0
274
    -2
284
     1
 64
     0
275
    -2
285
     1
 65
     0
276
    -2
286
     1
 66
     0
277
    -2
287
     1
 67
     0
278
    -2
288
     1
 68
     0
279
    -2
289
     1
 69
     0
  7
Standard
140
0.25
170
     5
 62
     0
 63
     7
283
     0
274
    -2
284
     1
 64
     0
275
    -2
285
     1
 65
     0
276
    -2
286
     1
 66
     0
277
    -2
287
     1
 67
     0
278
    -2
288
     1
 68
     0
279
    -2
289
     1
 69
     0
  7
Standard
140
0.18
170
     5
 62
     0
 63
     7
283
     0
274
    -2
284
     1
 64
     0
275
    -2
285
     1
 65
     0
276
    -2
286
     1
 66
     0
277
    -2
287
     1
 67
     0
278
    -2
288
     1
 68
     0
279
    -2
289
     1
 69
     0
  0
DICTIONARYVAR
  5
4E0
102
{ACAD_REACTORS
330
66
102
}
330
66
100
DictionaryVariables
280
     0
  1
STANDARD
  0
DICTIONARYVAR
  5
67
102
{ACAD_REACTORS
330
66
102
}
330
66
100
DictionaryVariables
280
     0
  1
2
  0
DICTIONARYVAR
  5
6B
102
{ACAD_REACTORS
330
66
102
}
330
66
100
DictionaryVariables
280
     0
  1
1
  0
XRECORD
  5
437
102
{ACAD_REACTORS
330
435
102
}
330
435
100
AcDbXrecord
280
     1
  0
ENDSEC
  0
EOF
