  0
SECTION
  2
HEADER
  9
$ACADVER
  1
AC1009
  9
$INSBASE
 10
0.0
 20
0.0
 30
0.0
  9
$EXTMIN
 10
-0.0270817936513949
 20
0.0000000016461574
 30
0.0
  9
$EXTMAX
 10
0.319081783578248
 20
2.5217236486321748
 30
0.0
  9
$LIMMIN
 10
0.0
 20
0.0
  9
$LIMMAX
 10
12.0
 20
9.0
  9
$ORTHOMODE
 70
     0
  9
$REGENMODE
 70
     1
  9
$FILLMODE
 70
     1
  9
$QTEXTMODE
 70
     0
  9
$MIRRTEXT
 70
     0
  9
$DRAGMODE
 70
     2
  9
$LTSCALE
 40
1.0
  9
$OSMODE
 70
    37
  9
$ATTMODE
 70
     1
  9
$TEXTSIZE
 40
0.2
  9
$TRACEWID
 40
0.05
  9
$TEXTSTYLE
  7
STANDARD
  9
$CLAYER
  8
0
  9
$CELTYPE
  6
BYLAYER
  9
$CECOLOR
 62
   256
  9
$DIMSCALE
 40
1.0
  9
$DIMASZ
 40
0.18
  9
$DIMEXO
 40
0.0625
  9
$DIMDLI
 40
0.38
  9
$DIMRND
 40
0.0
  9
$DIMDLE
 40
0.0
  9
$DIMEXE
 40
0.18
  9
$DIMTP
 40
0.0
  9
$DIMTM
 40
0.0
  9
$DIMTXT
 40
0.18
  9
$DIMCEN
 40
0.09
  9
$DIMTSZ
 40
0.0
  9
$DIMTOL
 70
     0
  9
$DIMLIM
 70
     0
  9
$DIMTIH
 70
     1
  9
$DIMTOH
 70
     1
  9
$DIMSE1
 70
     0
  9
$DIMSE2
 70
     0
  9
$DIMTAD
 70
     0
  9
$DIMZIN
 70
     0
  9
$DIMBLK
  1

  9
$DIMASO
 70
     1
  9
$DIMSHO
 70
     1
  9
$DIMPOST
  1

  9
$DIMAPOST
  1

  9
$DIMALT
 70
     0
  9
$DIMALTD
 70
     2
  9
$DIMALTF
 40
25.399999999999999
  9
$DIMLFAC
 40
1.0
  9
$DIMTOFL
 70
     0
  9
$DIMTVP
 40
0.0
  9
$DIMTIX
 70
     0
  9
$DIMSOXD
 70
     0
  9
$DIMSAH
 70
     0
  9
$DIMBLK1
  1

  9
$DIMBLK2
  1

  9
$DIMSTYLE
  2
STANDARD
  9
$DIMCLRD
 70
     0
  9
$DIMCLRE
 70
     0
  9
$DIMCLRT
 70
     0
  9
$DIMTFAC
 40
1.0
  9
$DIMGAP
 40
0.09
  9
$LUNITS
 70
     2
  9
$LUPREC
 70
     4
  9
$SKETCHINC
 40
0.1
  9
$FILLETRAD
 40
0.0
  9
$AUNITS
 70
     0
  9
$AUPREC
 70
     0
  9
$MENU
  1
.
  9
$ELEVATION
 40
0.0
  9
$PELEVATION
 40
0.0
  9
$THICKNESS
 40
0.0
  9
$LIMCHECK
 70
     0
  9
$BLIPMODE
 70
     0
  9
$CHAMFERA
 40
0.0
  9
$CHAMFERB
 40
0.0
  9
$SKPOLY
 70
     0
  9
$TDCREATE
 40
2453563.394082211
  9
$TDUPDATE
 40
2453622.5030856831
  9
$TDINDWG
 40
0.0471892708
  9
$TDUSRTIMER
 40
0.0471879977
  9
$USRTIMER
 70
     1
  9
$ANGBASE
 50
0.0
  9
$ANGDIR
 70
     0
  9
$PDMODE
 70
     0
  9
$PDSIZE
 40
0.0
  9
$PLINEWID
 40
0.0
  9
$COORDS
 70
     1
  9
$SPLFRAME
 70
     0
  9
$SPLINETYPE
 70
     6
  9
$SPLINESEGS
 70
     8
  9
$ATTDIA
 70
     0
  9
$ATTREQ
 70
     1
  9
$HANDLING
 70
     1
  9
$HANDSEED
  5
16D
  9
$SURFTAB1
 70
     6
  9
$SURFTAB2
 70
     6
  9
$SURFTYPE
 70
     6
  9
$SURFU
 70
     6
  9
$SURFV
 70
     6
  9
$UCSNAME
  2

  9
$UCSORG
 10
0.0
 20
0.0
 30
0.0
  9
$UCSXDIR
 10
1.0
 20
0.0
 30
0.0
  9
$UCSYDIR
 10
0.0
 20
1.0
 30
0.0
  9
$PUCSNAME
  2

  9
$PUCSORG
 10
0.0
 20
0.0
 30
0.0
  9
$PUCSXDIR
 10
1.0
 20
0.0
 30
0.0
  9
$PUCSYDIR
 10
0.0
 20
1.0
 30
0.0
  9
$USERI1
 70
     0
  9
$USERI2
 70
     0
  9
$USERI3
 70
     0
  9
$USERI4
 70
     0
  9
$USERI5
 70
     0
  9
$USERR1
 40
0.0
  9
$USERR2
 40
0.0
  9
$USERR3
 40
0.0
  9
$USERR4
 40
0.0
  9
$USERR5
 40
0.0
  9
$WORLDVIEW
 70
     1
  9
$SHADEDGE
 70
     3
  9
$SHADEDIF
 70
    70
  9
$TILEMODE
 70
     1
  9
$MAXACTVP
 70
    64
  9
$PLIMCHECK
 70
     0
  9
$PEXTMIN
 10
0.0
 20
0.0
 30
0.0
  9
$PEXTMAX
 10
0.0
 20
0.0
 30
0.0
  9
$PLIMMIN
 10
0.0
 20
0.0
  9
$PLIMMAX
 10
12.0
 20
9.0
  9
$UNITMODE
 70
     0
  9
$VISRETAIN
 70
     1
  9
$PLINEGEN
 70
     0
  9
$PSLTSCALE
 70
     1
  0
ENDSEC
  0
SECTION
  2
TABLES
  0
TABLE
  2
VPORT
 70
     2
  0
VPORT
  2
*ACTIVE
 70
     0
 10
0.0
 20
0.0
 11
1.0
 21
1.0
 12
0.3283840211965483
 22
1.394048055930402
 13
0.0
 23
0.0
 14
0.5
 24
0.5
 15
0.5
 25
0.5
 16
0.0
 26
0.0
 36
1.0
 17
0.0
 27
0.0
 37
0.0
 40
3.350265629422954
 41
1.5268542199488491
 42
50.0
 43
0.0
 44
0.0
 50
0.0
 51
0.0
 71
     0
 72
  1000
 73
     1
 74
     3
 75
     0
 76
     0
 77
     0
 78
     0
  0
ENDTAB
  0
TABLE
  2
LTYPE
 70
     1
  0
LTYPE
  2
CONTINUOUS
 70
     0
  3
Solid line
 72
    65
 73
     0
 40
0.0
  0
ENDTAB
  0
TABLE
  2
LAYER
 70
     1
  0
LAYER
  2
0
 70
     0
 62
     7
  6
CONTINUOUS
  0
ENDTAB
  0
TABLE
  2
STYLE
 70
     1
  0
STYLE
  2
STANDARD
 70
     0
 40
0.0
 41
1.0
 50
0.0
 71
     0
 42
0.2
  3
txt
  4

  0
ENDTAB
  0
TABLE
  2
VIEW
 70
     0
  0
ENDTAB
  0
TABLE
  2
UCS
 70
     0
  0
ENDTAB
  0
TABLE
  2
APPID
 70
     1
  0
APPID
  2
ACAD
 70
     0
  0
ENDTAB
  0
TABLE
  2
DIMSTYLE
 70
     1
  0
DIMSTYLE
  2
STANDARD
 70
     0
  3

  4

  5

  6

  7

 40
1.0
 41
0.18
 42
0.0625
 43
0.38
 44
0.18
 45
0.0
 46
0.0
 47
0.0
 48
0.0
140
0.18
141
0.09
142
0.0
143
25.399999999999999
144
1.0
145
0.0
146
1.0
147
0.09
 71
     0
 72
     0
 73
     1
 74
     1
 75
     0
 76
     0
 77
     0
 78
     0
170
     0
171
     2
172
     0
173
     0
174
     0
175
     0
176
     0
177
     0
178
     0
  0
ENDTAB
  0
ENDSEC
  0
SECTION
  2
BLOCKS
  0
BLOCK
  8
0
  2
$MODEL_SPACE
 70
     0
 10
0.0
 20
0.0
 30
0.0
  3
$MODEL_SPACE
  1

  0
ENDBLK
  5
21
  8
0
  0
BLOCK
 67
     1
  8
0
  2
$PAPER_SPACE
 70
     0
 10
0.0
 20
0.0
 30
0.0
  3
$PAPER_SPACE
  1

  0
ENDBLK
  5
5B
 67
     1
  8
0
  0
BLOCK
  8
0
  2
A$C3D555BED
 70
     0
 10
0.0
 20
0.0
 30
0.0
  3
A$C3D555BED
  1

  0
ARC
  5
F9
  8
0
 10
0.1459999964071975
 20
0.4595000016461574
 30
0.0
 40
0.146
 50
0.0
 51
180.0
  0
ARC
  5
FA
  8
0
 10
0.1459999964071975
 20
0.1460000016461575
 30
0.0
 40
0.146
 50
180.0
 51
0.0
  0
LINE
  5
FB
  8
0
 10
0.2919999964071975
 20
0.4595000016461574
 30
0.0
 11
0.2919999964071975
 21
0.1460000016461575
 31
0.0
  0
LINE
  5
FC
  8
0
 10
-0.0000000035928025
 20
0.4595000016461574
 30
0.0
 11
-0.0000000035928025
 21
0.1460000016461575
 31
0.0
  0
CIRCLE
  5
FD
  8
0
 10
0.1459999964071975
 20
0.4595000016461574
 30
0.0
 40
0.0955
  0
CIRCLE
  5
FE
  8
0
 10
0.1459999964071975
 20
0.1460000016461575
 30
0.0
 40
0.0955
  0
ENDBLK
  5
100
  8
0
  0
ENDSEC
  0
SECTION
  2
ENTITIES
  0
ARC
  5
F2
  8
0
 10
0.1459999964071975
 20
0.4595000016461574
 30
0.0
 40
0.146
 50
0.0
 51
82.126504778378106
  0
ARC
  5
F3
  8
0
 10
0.1459999964071975
 20
0.1460000016461575
 30
0.0
 40
0.146
 50
180.0
 51
0.0
  0
LINE
  5
F4
  8
0
 10
0.2919999964071975
 20
0.4595000016461574
 30
0.0
 11
0.2919999964071975
 21
0.1460000016461575
 31
0.0
  0
LINE
  5
F5
  8
0
 10
-0.0000000035928025
 20
0.4595000016461574
 30
0.0
 11
-0.0000000035928025
 21
0.1460000016461575
 31
0.0
  0
CIRCLE
  5
F6
  8
0
 10
0.1459999964071975
 20
0.4595000016461574
 30
0.0
 40
0.0955
  0
CIRCLE
  5
F7
  8
0
 10
0.1459999964071975
 20
0.1460000016461575
 30
0.0
 40
0.0955
  0
LINE
  5
109
  8
0
 10
0.126
 20
0.6041236516613333
 30
0.0
 11
0.1260000000000001
 21
1.604100000031206
 31
0.0
  0
LINE
  5
10A
  8
0
 10
0.166
 20
0.6041236506676362
 30
0.0
 11
0.1659999983227177
 21
1.604100001256854
 31
0.0
  0
ARC
  5
10B
  8
0
 10
0.1459999964071975
 20
0.4595000016461574
 30
0.0
 40
0.146
 50
97.873492374889395
 51
180.0
  0
POINT
  5
114
  8
0
 10
0.1459999964071975
 20
0.4595000016461574
 30
0.0
  0
POINT
  5
115
  8
0
 10
0.1459999964071975
 20
0.1460000016461575
 30
0.0
  0
LINE
  5
14E
  8
0
 10
0.2414999947299152
 20
1.7487236497311041
 30
0.0
 11
0.2414999983227177
 21
2.375723648084946
 31
0.0
  0
LINE
  5
14F
  8
0
 10
0.0504999983227177
 20
2.3757236491794038
 30
0.0
 11
0.0504999947299152
 21
1.7487236508255619
 31
0.0
  0
ARC
  5
150
  8
0
 10
0.1459999983227177
 20
2.3757236486321749
 30
0.0
 40
0.146
 50
0.0
 51
180.0
  0
POINT
  5
151
  8
0
 10
0.1459999983227177
 20
2.3757236486321749
 30
0.0
  0
ARC
  5
152
  8
0
 10
0.1459999983227177
 20
2.3757236486321749
 30
0.0
 40
0.0955
 50
359.99999967168679
 51
179.99999967168679
  0
POINT
  5
153
  8
0
 10
0.1459999947299152
 20
1.748723650278333
 30
0.0
  0
ARC
  5
154
  8
0
 10
0.1459999947299152
 20
1.748723650278333
 30
0.0
 40
0.146
 50
277.87349522162191
 51
0.0
  0
ARC
  5
155
  8
0
 10
0.1459999947299152
 20
1.748723650278333
 30
0.0
 40
0.0955
 50
179.99999967168671
 51
359.99999967168668
  0
LINE
  5
156
  8
0
 10
-0.0000000016772823
 20
2.3757236486321749
 30
0.0
 11
-0.0000000052700848
 21
1.748723650278333
 31
0.0
  0
LINE
  5
157
  8
0
 10
0.2919999983227177
 20
2.3757236486321749
 30
0.0
 11
0.2919999947299152
 21
1.748723650278333
 31
0.0
  0
ARC
  5
158
  8
0
 10
0.1459999947299152
 20
1.748723650278333
 30
0.0
 40
0.146
 50
180.0
 51
262.12650762511061
  0
ENDSEC
  0
EOF
