  0
SECTION
  2
HEADER
  9
$ACADVER
  1
AC1009
  9
$INSBASE
 10
0.0
 20
0.0
 30
0.0
  9
$EXTMIN
 10
-0.0302375915919964
 20
-0.0302375952547963
 30
0.0
  9
$EXTMAX
 10
1.546000003289554
 20
1.546000004262698
 30
0.0
  9
$LIMMIN
 10
0.0
 20
0.0
  9
$LIMMAX
 10
12.0
 20
9.0
  9
$ORTHOMODE
 70
     0
  9
$REGENMODE
 70
     1
  9
$FILLMODE
 70
     1
  9
$QTEXTMODE
 70
     0
  9
$MIRRTEXT
 70
     0
  9
$DRAGMODE
 70
     2
  9
$LTSCALE
 40
1.0
  9
$OSMODE
 70
    37
  9
$ATTMODE
 70
     1
  9
$TEXTSIZE
 40
0.2
  9
$TRACEWID
 40
0.05
  9
$TEXTSTYLE
  7
STANDARD
  9
$CLAYER
  8
0
  9
$CELTYPE
  6
BYLAYER
  9
$CECOLOR
 62
   256
  9
$DIMSCALE
 40
1.0
  9
$DIMASZ
 40
0.18
  9
$DIMEXO
 40
0.0625
  9
$DIMDLI
 40
0.38
  9
$DIMRND
 40
0.0
  9
$DIMDLE
 40
0.0
  9
$DIMEXE
 40
0.18
  9
$DIMTP
 40
0.0
  9
$DIMTM
 40
0.0
  9
$DIMTXT
 40
0.18
  9
$DIMCEN
 40
0.09
  9
$DIMTSZ
 40
0.0
  9
$DIMTOL
 70
     0
  9
$DIMLIM
 70
     0
  9
$DIMTIH
 70
     1
  9
$DIMTOH
 70
     1
  9
$DIMSE1
 70
     0
  9
$DIMSE2
 70
     0
  9
$DIMTAD
 70
     0
  9
$DIMZIN
 70
     0
  9
$DIMBLK
  1

  9
$DIMASO
 70
     1
  9
$DIMSHO
 70
     1
  9
$DIMPOST
  1

  9
$DIMAPOST
  1

  9
$DIMALT
 70
     0
  9
$DIMALTD
 70
     2
  9
$DIMALTF
 40
25.399999999999999
  9
$DIMLFAC
 40
1.0
  9
$DIMTOFL
 70
     0
  9
$DIMTVP
 40
0.0
  9
$DIMTIX
 70
     0
  9
$DIMSOXD
 70
     0
  9
$DIMSAH
 70
     0
  9
$DIMBLK1
  1

  9
$DIMBLK2
  1

  9
$DIMSTYLE
  2
STANDARD
  9
$DIMCLRD
 70
     0
  9
$DIMCLRE
 70
     0
  9
$DIMCLRT
 70
     0
  9
$DIMTFAC
 40
1.0
  9
$DIMGAP
 40
0.09
  9
$LUNITS
 70
     2
  9
$LUPREC
 70
     4
  9
$SKETCHINC
 40
0.1
  9
$FILLETRAD
 40
0.0
  9
$AUNITS
 70
     0
  9
$AUPREC
 70
     0
  9
$MENU
  1
.
  9
$ELEVATION
 40
0.0
  9
$PELEVATION
 40
0.0
  9
$THICKNESS
 40
0.0
  9
$LIMCHECK
 70
     0
  9
$BLIPMODE
 70
     0
  9
$CHAMFERA
 40
0.0
  9
$CHAMFERB
 40
0.0
  9
$SKPOLY
 70
     0
  9
$TDCREATE
 40
2453563.394082211
  9
$TDUPDATE
 40
2453622.514193322
  9
$TDINDWG
 40
0.0632338079
  9
$TDUSRTIMER
 40
0.0632321644
  9
$USRTIMER
 70
     1
  9
$ANGBASE
 50
0.0
  9
$ANGDIR
 70
     0
  9
$PDMODE
 70
     0
  9
$PDSIZE
 40
0.0
  9
$PLINEWID
 40
0.0
  9
$COORDS
 70
     1
  9
$SPLFRAME
 70
     0
  9
$SPLINETYPE
 70
     6
  9
$SPLINESEGS
 70
     8
  9
$ATTDIA
 70
     0
  9
$ATTREQ
 70
     1
  9
$HANDLING
 70
     1
  9
$HANDSEED
  5
2F5
  9
$SURFTAB1
 70
     6
  9
$SURFTAB2
 70
     6
  9
$SURFTYPE
 70
     6
  9
$SURFU
 70
     6
  9
$SURFV
 70
     6
  9
$UCSNAME
  2

  9
$UCSORG
 10
0.0
 20
0.0
 30
0.0
  9
$UCSXDIR
 10
1.0
 20
0.0
 30
0.0
  9
$UCSYDIR
 10
0.0
 20
1.0
 30
0.0
  9
$PUCSNAME
  2

  9
$PUCSORG
 10
0.0
 20
0.0
 30
0.0
  9
$PUCSXDIR
 10
1.0
 20
0.0
 30
0.0
  9
$PUCSYDIR
 10
0.0
 20
1.0
 30
0.0
  9
$USERI1
 70
     0
  9
$USERI2
 70
     0
  9
$USERI3
 70
     0
  9
$USERI4
 70
     0
  9
$USERI5
 70
     0
  9
$USERR1
 40
0.0
  9
$USERR2
 40
0.0
  9
$USERR3
 40
0.0
  9
$USERR4
 40
0.0
  9
$USERR5
 40
0.0
  9
$WORLDVIEW
 70
     1
  9
$SHADEDGE
 70
     3
  9
$SHADEDIF
 70
    70
  9
$TILEMODE
 70
     1
  9
$MAXACTVP
 70
    64
  9
$PLIMCHECK
 70
     0
  9
$PEXTMIN
 10
0.0
 20
0.0
 30
0.0
  9
$PEXTMAX
 10
0.0
 20
0.0
 30
0.0
  9
$PLIMMIN
 10
0.0
 20
0.0
  9
$PLIMMAX
 10
12.0
 20
9.0
  9
$UNITMODE
 70
     0
  9
$VISRETAIN
 70
     1
  9
$PLINEGEN
 70
     0
  9
$PSLTSCALE
 70
     1
  0
ENDSEC
  0
SECTION
  2
TABLES
  0
TABLE
  2
VPORT
 70
     2
  0
VPORT
  2
*ACTIVE
 70
     0
 10
0.0
 20
0.0
 11
1.0
 21
1.0
 12
0.9305856165978529
 22
1.496866035800076
 13
0.0
 23
0.0
 14
0.5
 24
0.5
 15
0.5
 25
0.5
 16
0.0
 26
0.0
 36
1.0
 17
0.0
 27
0.0
 37
0.0
 40
3.7150979771806081
 41
1.5268542199488491
 42
50.0
 43
0.0
 44
0.0
 50
0.0
 51
0.0
 71
     0
 72
  1000
 73
     1
 74
     3
 75
     0
 76
     0
 77
     0
 78
     0
  0
ENDTAB
  0
TABLE
  2
LTYPE
 70
     1
  0
LTYPE
  2
CONTINUOUS
 70
     0
  3
Solid line
 72
    65
 73
     0
 40
0.0
  0
ENDTAB
  0
TABLE
  2
LAYER
 70
     1
  0
LAYER
  2
0
 70
     0
 62
     7
  6
CONTINUOUS
  0
ENDTAB
  0
TABLE
  2
STYLE
 70
     1
  0
STYLE
  2
STANDARD
 70
     0
 40
0.0
 41
1.0
 50
0.0
 71
     0
 42
0.2
  3
txt
  4

  0
ENDTAB
  0
TABLE
  2
VIEW
 70
     0
  0
ENDTAB
  0
TABLE
  2
UCS
 70
     0
  0
ENDTAB
  0
TABLE
  2
APPID
 70
     1
  0
APPID
  2
ACAD
 70
     0
  0
ENDTAB
  0
TABLE
  2
DIMSTYLE
 70
     1
  0
DIMSTYLE
  2
STANDARD
 70
     0
  3

  4

  5

  6

  7

 40
1.0
 41
0.18
 42
0.0625
 43
0.38
 44
0.18
 45
0.0
 46
0.0
 47
0.0
 48
0.0
140
0.18
141
0.09
142
0.0
143
25.399999999999999
144
1.0
145
0.0
146
1.0
147
0.09
 71
     0
 72
     0
 73
     1
 74
     1
 75
     0
 76
     0
 77
     0
 78
     0
170
     0
171
     2
172
     0
173
     0
174
     0
175
     0
176
     0
177
     0
178
     0
  0
ENDTAB
  0
ENDSEC
  0
SECTION
  2
BLOCKS
  0
BLOCK
  8
0
  2
$MODEL_SPACE
 70
     0
 10
0.0
 20
0.0
 30
0.0
  3
$MODEL_SPACE
  1

  0
ENDBLK
  5
1AB
  8
0
  0
BLOCK
 67
     1
  8
0
  2
$PAPER_SPACE
 70
     0
 10
0.0
 20
0.0
 30
0.0
  3
$PAPER_SPACE
  1

  0
ENDBLK
  5
1A7
 67
     1
  8
0
  0
BLOCK
  8
0
  2
A$C4B2D49B4
 70
     0
 10
0.0
 20
0.0
 30
0.0
  3
A$C4B2D49B4
  1

  0
CIRCLE
  5
248
  8
0
 10
0.7225000131090855
 20
0.0954999991217653
 30
0.0
 40
0.0955
  0
CIRCLE
  5
249
  8
0
 10
0.4090000131090854
 20
0.0954999991217653
 30
0.0
 40
0.0955
  0
CIRCLE
  5
24A
  8
0
 10
1.036000013109085
 20
0.0954999991217653
 30
0.0
 40
0.0955
  0
CIRCLE
  5
24B
  8
0
 10
0.0955000049318539
 20
0.0954999991217653
 30
0.0
 40
0.0955
  0
ENDBLK
  5
24D
  8
0
  0
ENDSEC
  0
SECTION
  2
ENTITIES
  0
POLYLINE
  5
1FB
  8
0
 66
     1
 10
0.0
 20
0.0
 30
0.0
  0
VERTEX
  5
2EA
  8
0
 10
-0.0000000017519228
 20
0.3769999991237456
 30
0.0
  0
VERTEX
  5
2EB
  8
0
 10
-0.0000000017519228
 20
0.3769999991237456
 30
0.0
  0
SEQEND
  5
2EC
  8
0
  0
CIRCLE
  5
2B7
  8
0
 10
1.4000000058300039
 20
0.1459999974595501
 30
0.0
 40
0.0955
  0
CIRCLE
  5
2B8
  8
0
 10
1.0865000084998491
 20
0.1459999957030806
 30
0.0
 40
0.0955
  0
CIRCLE
  5
2B9
  8
0
 10
0.7730000084998494
 20
0.1459999957030806
 30
0.0
 40
0.0955
  0
CIRCLE
  5
2BA
  8
0
 10
0.4595000084998495
 20
0.1459999957030806
 30
0.0
 40
0.0955
  0
CIRCLE
  5
2BB
  8
0
 10
0.1460000003226179
 20
0.1459999957030806
 30
0.0
 40
0.0955
  0
CIRCLE
  5
2BC
  8
0
 10
0.1460000014446958
 20
0.7729999975301629
 30
0.0
 40
0.0955
  0
CIRCLE
  5
2BD
  8
0
 10
0.1460000014446959
 20
1.086499997530163
 30
0.0
 40
0.0955
  0
CIRCLE
  5
2BE
  8
0
 10
0.1460000014446958
 20
0.4594999975301631
 30
0.0
 40
0.0955
  0
CIRCLE
  5
2BF
  8
0
 10
0.1460000014446959
 20
1.400000005707394
 30
0.0
 40
0.0955
  0
POLYLINE
  5
2C7
  8
0
 66
     1
 10
0.0
 20
0.0
 30
0.0
  0
VERTEX
  5
2ED
  8
0
 10
0.2919999962547585
 20
0.2919999968789193
 30
0.0
  0
VERTEX
  5
2EE
  8
0
 10
0.2919999962547585
 20
0.2919999968789193
 30
0.0
  0
VERTEX
  5
2EF
  8
0
 10
0.292
 20
1.399999999999999
 30
0.0
  0
SEQEND
  5
2F0
  8
0
  0
POLYLINE
  5
2C8
  8
0
 66
     1
 10
0.0
 20
0.0
 30
0.0
  0
VERTEX
  5
2F1
  8
0
 10
1.399999999999999
 20
0.292
 30
0.0
  0
VERTEX
  5
2F2
  8
0
 10
1.399999999999999
 20
0.292
 30
0.0
  0
VERTEX
  5
2F3
  8
0
 10
0.2919999962547585
 20
0.2919999968789193
 30
0.0
  0
SEQEND
  5
2F4
  8
0
  0
ARC
  5
2C9
  8
0
 10
0.1460000014446959
 20
1.400000005707394
 30
0.0
 40
0.1459999985553042
 50
359.99999776020798
 51
180.0000022397918
  0
ARC
  5
2CA
  8
0
 10
1.4000000058300039
 20
0.1459999974595501
 30
0.0
 40
0.1459999974595502
 50
269.99999771209127
 51
90.000002287908586
  0
LINE
  5
2CB
  8
0
 10
1.399999999999999
 20
0.0
 30
0.0
 11
0.146
 21
0.0
 31
0.0
  0
LINE
  5
2CC
  8
0
 10
0.0000000028893919
 20
1.3999999999999999
 30
0.0
 11
0.0
 21
0.146
 31
0.0
  0
ARC
  5
2CD
  8
0
 10
0.1460000003226179
 20
0.1459999957030806
 30
0.0
 40
0.146000000322618
 50
179.99999831373049
 51
269.99999987339288
  0
POINT
  5
2D3
  8
0
 10
0.1460000014446959
 20
1.400000005707394
 30
0.0
  0
POINT
  5
2D4
  8
0
 10
0.1460000014446959
 20
1.086499997530163
 30
0.0
  0
POINT
  5
2D5
  8
0
 10
0.1460000014446958
 20
0.7729999975301629
 30
0.0
  0
POINT
  5
2D6
  8
0
 10
0.1460000014446958
 20
0.4594999975301631
 30
0.0
  0
POINT
  5
2D7
  8
0
 10
0.1460000003226179
 20
0.1459999957030806
 30
0.0
  0
POINT
  5
2D8
  8
0
 10
0.4595000084998495
 20
0.1459999957030806
 30
0.0
  0
POINT
  5
2D9
  8
0
 10
0.7730000084998494
 20
0.1459999957030806
 30
0.0
  0
POINT
  5
2DA
  8
0
 10
1.0865000084998491
 20
0.1459999957030806
 30
0.0
  0
POINT
  5
2DB
  8
0
 10
1.4000000058300039
 20
0.1459999974595501
 30
0.0
  0
ENDSEC
  0
EOF
