  0
SECTION
  2
HEADER
  9
$ACADVER
  1
AC1009
  9
$INSBASE
 10
0.0
 20
0.0
 30
0.0
  9
$EXTMIN
 10
-0.0404928288999146
 20
-0.0344823008536888
 30
0.0
  9
$EXTMAX
 10
2.2610148193941271
 20
1.3086137181951001
 30
0.0
  9
$LIMMIN
 10
0.0
 20
0.0
  9
$LIMMAX
 10
12.0
 20
9.0
  9
$ORTHOMODE
 70
     0
  9
$REGENMODE
 70
     1
  9
$FILLMODE
 70
     1
  9
$QTEXTMODE
 70
     0
  9
$MIRRTEXT
 70
     0
  9
$DRAGMODE
 70
     2
  9
$LTSCALE
 40
1.0
  9
$OSMODE
 70
    37
  9
$ATTMODE
 70
     1
  9
$TEXTSIZE
 40
0.2
  9
$TRACEWID
 40
0.05
  9
$TEXTSTYLE
  7
STANDARD
  9
$CLAYER
  8
0
  9
$CELTYPE
  6
BYLAYER
  9
$CECOLOR
 62
   256
  9
$DIMSCALE
 40
1.0
  9
$DIMASZ
 40
0.18
  9
$DIMEXO
 40
0.0625
  9
$DIMDLI
 40
0.38
  9
$DIMRND
 40
0.0
  9
$DIMDLE
 40
0.0
  9
$DIMEXE
 40
0.18
  9
$DIMTP
 40
0.0
  9
$DIMTM
 40
0.0
  9
$DIMTXT
 40
0.18
  9
$DIMCEN
 40
0.09
  9
$DIMTSZ
 40
0.0
  9
$DIMTOL
 70
     0
  9
$DIMLIM
 70
     0
  9
$DIMTIH
 70
     1
  9
$DIMTOH
 70
     1
  9
$DIMSE1
 70
     0
  9
$DIMSE2
 70
     0
  9
$DIMTAD
 70
     0
  9
$DIMZIN
 70
     0
  9
$DIMBLK
  1

  9
$DIMASO
 70
     1
  9
$DIMSHO
 70
     1
  9
$DIMPOST
  1

  9
$DIMAPOST
  1

  9
$DIMALT
 70
     0
  9
$DIMALTD
 70
     2
  9
$DIMALTF
 40
25.399999999999999
  9
$DIMLFAC
 40
1.0
  9
$DIMTOFL
 70
     0
  9
$DIMTVP
 40
0.0
  9
$DIMTIX
 70
     0
  9
$DIMSOXD
 70
     0
  9
$DIMSAH
 70
     0
  9
$DIMBLK1
  1

  9
$DIMBLK2
  1

  9
$DIMSTYLE
  2
STANDARD
  9
$DIMCLRD
 70
     0
  9
$DIMCLRE
 70
     0
  9
$DIMCLRT
 70
     0
  9
$DIMTFAC
 40
1.0
  9
$DIMGAP
 40
0.09
  9
$LUNITS
 70
     2
  9
$LUPREC
 70
     4
  9
$SKETCHINC
 40
0.1
  9
$FILLETRAD
 40
0.0
  9
$AUNITS
 70
     0
  9
$AUPREC
 70
     0
  9
$MENU
  1
.
  9
$ELEVATION
 40
0.0
  9
$PELEVATION
 40
0.0
  9
$THICKNESS
 40
0.0
  9
$LIMCHECK
 70
     0
  9
$BLIPMODE
 70
     0
  9
$CHAMFERA
 40
0.0
  9
$CHAMFERB
 40
0.0
  9
$SKPOLY
 70
     0
  9
$TDCREATE
 40
2453563.394082211
  9
$TDUPDATE
 40
2453627.4919260191
  9
$TDINDWG
 40
0.1201652315
  9
$TDUSRTIMER
 40
0.120163588
  9
$USRTIMER
 70
     1
  9
$ANGBASE
 50
0.0
  9
$ANGDIR
 70
     0
  9
$PDMODE
 70
     0
  9
$PDSIZE
 40
0.0
  9
$PLINEWID
 40
0.0
  9
$COORDS
 70
     1
  9
$SPLFRAME
 70
     0
  9
$SPLINETYPE
 70
     6
  9
$SPLINESEGS
 70
     8
  9
$ATTDIA
 70
     0
  9
$ATTREQ
 70
     1
  9
$HANDLING
 70
     1
  9
$HANDSEED
  5
2FE
  9
$SURFTAB1
 70
     6
  9
$SURFTAB2
 70
     6
  9
$SURFTYPE
 70
     6
  9
$SURFU
 70
     6
  9
$SURFV
 70
     6
  9
$UCSNAME
  2

  9
$UCSORG
 10
0.0
 20
0.0
 30
0.0
  9
$UCSXDIR
 10
1.0
 20
0.0
 30
0.0
  9
$UCSYDIR
 10
0.0
 20
1.0
 30
0.0
  9
$PUCSNAME
  2

  9
$PUCSORG
 10
0.0
 20
0.0
 30
0.0
  9
$PUCSXDIR
 10
1.0
 20
0.0
 30
0.0
  9
$PUCSYDIR
 10
0.0
 20
1.0
 30
0.0
  9
$USERI1
 70
     0
  9
$USERI2
 70
     0
  9
$USERI3
 70
     0
  9
$USERI4
 70
     0
  9
$USERI5
 70
     0
  9
$USERR1
 40
0.0
  9
$USERR2
 40
0.0
  9
$USERR3
 40
0.0
  9
$USERR4
 40
0.0
  9
$USERR5
 40
0.0
  9
$WORLDVIEW
 70
     1
  9
$SHADEDGE
 70
     3
  9
$SHADEDIF
 70
    70
  9
$TILEMODE
 70
     1
  9
$MAXACTVP
 70
    64
  9
$PLIMCHECK
 70
     0
  9
$PEXTMIN
 10
0.0
 20
0.0
 30
0.0
  9
$PEXTMAX
 10
0.0
 20
0.0
 30
0.0
  9
$PLIMMIN
 10
0.0
 20
0.0
  9
$PLIMMAX
 10
12.0
 20
9.0
  9
$UNITMODE
 70
     0
  9
$VISRETAIN
 70
     1
  9
$PLINEGEN
 70
     0
  9
$PSLTSCALE
 70
     1
  0
ENDSEC
  0
SECTION
  2
TABLES
  0
TABLE
  2
VPORT
 70
     3
  0
VPORT
  2
*ACTIVE
 70
     0
 10
0.0
 20
0.0
 11
1.0
 21
1.0
 12
0.0051767191192251
 22
0.5483550980330713
 13
0.0
 23
0.0
 14
0.5
 24
0.5
 15
0.5
 25
0.5
 16
0.0
 26
0.0
 36
1.0
 17
0.0
 27
0.0
 37
0.0
 40
1.612833399200299
 41
1.5962566844919781
 42
50.0
 43
0.0
 44
0.0
 50
0.0
 51
0.0
 71
     0
 72
  1000
 73
     1
 74
     3
 75
     0
 76
     0
 77
     0
 78
     0
  0
ENDTAB
  0
TABLE
  2
LTYPE
 70
     1
  0
LTYPE
  2
CONTINUOUS
 70
     0
  3
Solid line
 72
    65
 73
     0
 40
0.0
  0
ENDTAB
  0
TABLE
  2
LAYER
 70
     1
  0
LAYER
  2
0
 70
     0
 62
     7
  6
CONTINUOUS
  0
ENDTAB
  0
TABLE
  2
STYLE
 70
     1
  0
STYLE
  2
STANDARD
 70
     0
 40
0.0
 41
1.0
 50
0.0
 71
     0
 42
0.2
  3
txt
  4

  0
ENDTAB
  0
TABLE
  2
VIEW
 70
     0
  0
ENDTAB
  0
TABLE
  2
UCS
 70
     0
  0
ENDTAB
  0
TABLE
  2
APPID
 70
     1
  0
APPID
  2
ACAD
 70
     0
  0
ENDTAB
  0
TABLE
  2
DIMSTYLE
 70
     1
  0
DIMSTYLE
  2
STANDARD
 70
     0
  3

  4

  5

  6

  7

 40
1.0
 41
0.18
 42
0.0625
 43
0.38
 44
0.18
 45
0.0
 46
0.0
 47
0.0
 48
0.0
140
0.18
141
0.09
142
0.0
143
25.399999999999999
144
1.0
145
0.0
146
1.0
147
0.09
 71
     0
 72
     0
 73
     1
 74
     1
 75
     0
 76
     0
 77
     0
 78
     0
170
     0
171
     2
172
     0
173
     0
174
     0
175
     0
176
     0
177
     0
178
     0
  0
ENDTAB
  0
ENDSEC
  0
SECTION
  2
BLOCKS
  0
BLOCK
  8
0
  2
$MODEL_SPACE
 70
     0
 10
0.0
 20
0.0
 30
0.0
  3
$MODEL_SPACE
  1

  0
ENDBLK
  5
1AB
  8
0
  0
BLOCK
 67
     1
  8
0
  2
$PAPER_SPACE
 70
     0
 10
0.0
 20
0.0
 30
0.0
  3
$PAPER_SPACE
  1

  0
ENDBLK
  5
1A7
 67
     1
  8
0
  0
BLOCK
  8
0
  2
*U2
 70
     1
 10
0.0
 20
0.0
 30
0.0
  3
*U2
  1

  0
TEXT
  5
2F7
  8
0
 10
1.0026814860607951
 20
0.9975716643912294
 30
0.0
 40
0.1
  1
Cut out of 
  0
TEXT
  5
2F8
  8
0
 10
1.0151814860607951
 20
0.8559049977245629
 30
0.0
 40
0.075
  1
1
  0
LINE
  5
2F9
  8
0
 10
1.0026814860607951
 20
0.8434049977245628
 30
0.0
 11
1.0526814860607949
 21
0.8434049977245628
 31
0.0
  0
TEXT
  5
2FA
  8
0
 10
1.0026814860607951
 20
0.7559049977245628
 30
0.0
 40
0.075
  1
8
  0
TEXT
  5
2FB
  8
0
 10
1.0776814860607951
 20
0.7934049977245629
 30
0.0
 40
0.1
  1
 inch material
  0
ENDBLK
  5
2FD
  8
0
  0
ENDSEC
  0
SECTION
  2
ENTITIES
  0
CIRCLE
  5
28E
  8
0
 10
0.7730000110842056
 20
0.1460000033987032
 30
0.0
 40
0.0955
  0
CIRCLE
  5
28F
  8
0
 10
0.4595000110842057
 20
0.1460000033987032
 30
0.0
 40
0.0955
  0
CIRCLE
  5
290
  8
0
 10
0.1460000029069741
 20
0.1460000033987032
 30
0.0
 40
0.0955
  0
LINE
  5
293
  8
0
 10
0.146
 20
0.0
 30
0.0
 11
0.7730000000000001
 21
0.0
 31
0.0
  0
LINE
  5
294
  8
0
 10
0.146
 20
0.292
 30
0.0
 11
0.7730000000000001
 21
0.292
 31
0.0
  0
ARC
  5
295
  8
0
 10
0.7730000110842056
 20
0.1460000033987032
 30
0.0
 40
0.1460000033987036
 50
269.9999956501494
 51
90.000004349850769
  0
ARC
  5
2D5
  8
0
 10
0.1459999955245292
 20
1.1289000050688469
 30
0.0
 40
0.1459999966012968
 50
90.000001140803775
 51
269.9999988591963
  0
LINE
  5
2D6
  8
0
 10
0.1459999926175551
 20
1.2749000016701439
 30
0.0
 11
0.7729999926175553
 21
1.2749000016701439
 31
0.0
  0
LINE
  5
2D7
  8
0
 10
0.1459999926175551
 20
0.982900001670144
 30
0.0
 11
0.7729999926175553
 21
0.982900001670144
 31
0.0
  0
CIRCLE
  5
2D8
  8
0
 10
0.1459999955245292
 20
1.1289000050688469
 30
0.0
 40
0.0955
  0
CIRCLE
  5
2D9
  8
0
 10
0.4595000037017608
 20
1.1289000050688469
 30
0.0
 40
0.0955
  0
CIRCLE
  5
2DA
  8
0
 10
0.7730000037017608
 20
1.1289000050688469
 30
0.0
 40
0.0955
  0
ARC
  5
2DB
  8
0
 10
0.7730000037017608
 20
1.1289000050688469
 30
0.0
 40
0.1460000033987038
 50
312.42824346827331
 51
90.000004349850769
  0
LINE
  5
2DC
  8
0
 10
0.8715012888516186
 20
1.0211340651052021
 30
0.0
 11
0.146
 21
0.292
 31
0.0
  0
ARC
  5
2DD
  8
0
 10
0.1460000029069741
 20
0.1460000033987032
 30
0.0
 40
0.1459999966012968
 50
134.970102166603
 51
269.9999988591963
  0
INSERT
  5
2E4
  8
0
  2
*U2
 10
0.0
 20
0.0
 30
0.0
  0
LINE
  5
2EB
  8
0
 10
0.7729999926175553
 20
0.982900001670144
 30
0.0
 11
0.0428163002969454
 21
0.2492914479779318
 31
0.0
  0
ENDSEC
  0
EOF
