  0
SECTION
  2
HEADER
  9
$ACADVER
  1
AC1009
  9
$INSBASE
 10
0.0
 20
0.0
 30
0.0
  9
$EXTMIN
 10
-0.040509522082991
 20
-0.0344934637124556
 30
0.0
  9
$EXTMAX
 10
2.5012202339401899
 20
1.6210021148961149
 30
0.0
  9
$LIMMIN
 10
0.0
 20
0.0
  9
$LIMMAX
 10
12.0
 20
9.0
  9
$ORTHOMODE
 70
     0
  9
$REGENMODE
 70
     1
  9
$FILLMODE
 70
     1
  9
$QTEXTMODE
 70
     0
  9
$MIRRTEXT
 70
     0
  9
$DRAGMODE
 70
     2
  9
$LTSCALE
 40
1.0
  9
$OSMODE
 70
    37
  9
$ATTMODE
 70
     1
  9
$TEXTSIZE
 40
0.2
  9
$TRACEWID
 40
0.05
  9
$TEXTSTYLE
  7
STANDARD
  9
$CLAYER
  8
0
  9
$CELTYPE
  6
BYLAYER
  9
$CECOLOR
 62
   256
  9
$DIMSCALE
 40
1.0
  9
$DIMASZ
 40
0.18
  9
$DIMEXO
 40
0.0625
  9
$DIMDLI
 40
0.38
  9
$DIMRND
 40
0.0
  9
$DIMDLE
 40
0.0
  9
$DIMEXE
 40
0.18
  9
$DIMTP
 40
0.0
  9
$DIMTM
 40
0.0
  9
$DIMTXT
 40
0.18
  9
$DIMCEN
 40
0.09
  9
$DIMTSZ
 40
0.0
  9
$DIMTOL
 70
     0
  9
$DIMLIM
 70
     0
  9
$DIMTIH
 70
     1
  9
$DIMTOH
 70
     1
  9
$DIMSE1
 70
     0
  9
$DIMSE2
 70
     0
  9
$DIMTAD
 70
     0
  9
$DIMZIN
 70
     0
  9
$DIMBLK
  1

  9
$DIMASO
 70
     1
  9
$DIMSHO
 70
     1
  9
$DIMPOST
  1

  9
$DIMAPOST
  1

  9
$DIMALT
 70
     0
  9
$DIMALTD
 70
     2
  9
$DIMALTF
 40
25.399999999999999
  9
$DIMLFAC
 40
1.0
  9
$DIMTOFL
 70
     0
  9
$DIMTVP
 40
0.0
  9
$DIMTIX
 70
     0
  9
$DIMSOXD
 70
     0
  9
$DIMSAH
 70
     0
  9
$DIMBLK1
  1

  9
$DIMBLK2
  1

  9
$DIMSTYLE
  2
STANDARD
  9
$DIMCLRD
 70
     0
  9
$DIMCLRE
 70
     0
  9
$DIMCLRT
 70
     0
  9
$DIMTFAC
 40
1.0
  9
$DIMGAP
 40
0.09
  9
$LUNITS
 70
     2
  9
$LUPREC
 70
     4
  9
$SKETCHINC
 40
0.1
  9
$FILLETRAD
 40
0.0
  9
$AUNITS
 70
     0
  9
$AUPREC
 70
     0
  9
$MENU
  1
.
  9
$ELEVATION
 40
0.0
  9
$PELEVATION
 40
0.0
  9
$THICKNESS
 40
0.0
  9
$LIMCHECK
 70
     0
  9
$BLIPMODE
 70
     0
  9
$CHAMFERA
 40
0.0
  9
$CHAMFERB
 40
0.0
  9
$SKPOLY
 70
     0
  9
$TDCREATE
 40
2453563.394082211
  9
$TDUPDATE
 40
2453627.493232674
  9
$TDINDWG
 40
0.0827478241
  9
$TDUSRTIMER
 40
0.0827461806
  9
$USRTIMER
 70
     1
  9
$ANGBASE
 50
0.0
  9
$ANGDIR
 70
     0
  9
$PDMODE
 70
     0
  9
$PDSIZE
 40
0.0
  9
$PLINEWID
 40
0.0
  9
$COORDS
 70
     1
  9
$SPLFRAME
 70
     0
  9
$SPLINETYPE
 70
     6
  9
$SPLINESEGS
 70
     8
  9
$ATTDIA
 70
     0
  9
$ATTREQ
 70
     1
  9
$HANDLING
 70
     1
  9
$HANDSEED
  5
39A
  9
$SURFTAB1
 70
     6
  9
$SURFTAB2
 70
     6
  9
$SURFTYPE
 70
     6
  9
$SURFU
 70
     6
  9
$SURFV
 70
     6
  9
$UCSNAME
  2

  9
$UCSORG
 10
0.0
 20
0.0
 30
0.0
  9
$UCSXDIR
 10
1.0
 20
0.0
 30
0.0
  9
$UCSYDIR
 10
0.0
 20
1.0
 30
0.0
  9
$PUCSNAME
  2

  9
$PUCSORG
 10
0.0
 20
0.0
 30
0.0
  9
$PUCSXDIR
 10
1.0
 20
0.0
 30
0.0
  9
$PUCSYDIR
 10
0.0
 20
1.0
 30
0.0
  9
$USERI1
 70
     0
  9
$USERI2
 70
     0
  9
$USERI3
 70
     0
  9
$USERI4
 70
     0
  9
$USERI5
 70
     0
  9
$USERR1
 40
0.0
  9
$USERR2
 40
0.0
  9
$USERR3
 40
0.0
  9
$USERR4
 40
0.0
  9
$USERR5
 40
0.0
  9
$WORLDVIEW
 70
     1
  9
$SHADEDGE
 70
     3
  9
$SHADEDIF
 70
    70
  9
$TILEMODE
 70
     1
  9
$MAXACTVP
 70
    64
  9
$PLIMCHECK
 70
     0
  9
$PEXTMIN
 10
0.0
 20
0.0
 30
0.0
  9
$PEXTMAX
 10
0.0
 20
0.0
 30
0.0
  9
$PLIMMIN
 10
0.0
 20
0.0
  9
$PLIMMAX
 10
12.0
 20
9.0
  9
$UNITMODE
 70
     0
  9
$VISRETAIN
 70
     1
  9
$PLINEGEN
 70
     0
  9
$PSLTSCALE
 70
     1
  0
ENDSEC
  0
SECTION
  2
TABLES
  0
TABLE
  2
VPORT
 70
     3
  0
VPORT
  2
*ACTIVE
 70
     0
 10
0.0
 20
0.0
 11
1.0
 21
1.0
 12
-0.1078711530684639
 22
0.409369777782727
 13
0.0
 23
0.0
 14
0.5
 24
0.5
 15
0.5
 25
0.5
 16
0.0
 26
0.0
 36
1.0
 17
0.0
 27
0.0
 37
0.0
 40
2.5150656006646162
 41
1.5962566844919781
 42
50.0
 43
0.0
 44
0.0
 50
0.0
 51
0.0
 71
     0
 72
  1000
 73
     1
 74
     3
 75
     0
 76
     0
 77
     0
 78
     0
  0
ENDTAB
  0
TABLE
  2
LTYPE
 70
     1
  0
LTYPE
  2
CONTINUOUS
 70
     0
  3
Solid line
 72
    65
 73
     0
 40
0.0
  0
ENDTAB
  0
TABLE
  2
LAYER
 70
     1
  0
LAYER
  2
0
 70
     0
 62
     7
  6
CONTINUOUS
  0
ENDTAB
  0
TABLE
  2
STYLE
 70
     1
  0
STYLE
  2
STANDARD
 70
     0
 40
0.0
 41
1.0
 50
0.0
 71
     0
 42
0.2
  3
txt
  4

  0
ENDTAB
  0
TABLE
  2
VIEW
 70
     0
  0
ENDTAB
  0
TABLE
  2
UCS
 70
     0
  0
ENDTAB
  0
TABLE
  2
APPID
 70
     1
  0
APPID
  2
ACAD
 70
     0
  0
ENDTAB
  0
TABLE
  2
DIMSTYLE
 70
     1
  0
DIMSTYLE
  2
STANDARD
 70
     0
  3

  4

  5

  6

  7

 40
1.0
 41
0.18
 42
0.0625
 43
0.38
 44
0.18
 45
0.0
 46
0.0
 47
0.0
 48
0.0
140
0.18
141
0.09
142
0.0
143
25.399999999999999
144
1.0
145
0.0
146
1.0
147
0.09
 71
     0
 72
     0
 73
     1
 74
     1
 75
     0
 76
     0
 77
     0
 78
     0
170
     0
171
     2
172
     0
173
     0
174
     0
175
     0
176
     0
177
     0
178
     0
  0
ENDTAB
  0
ENDSEC
  0
SECTION
  2
BLOCKS
  0
BLOCK
  8
0
  2
$MODEL_SPACE
 70
     0
 10
0.0
 20
0.0
 30
0.0
  3
$MODEL_SPACE
  1

  0
ENDBLK
  5
1AB
  8
0
  0
BLOCK
 67
     1
  8
0
  2
$PAPER_SPACE
 70
     0
 10
0.0
 20
0.0
 30
0.0
  3
$PAPER_SPACE
  1

  0
ENDBLK
  5
1A7
 67
     1
  8
0
  0
BLOCK
  8
0
  2
*U2
 70
     1
 10
0.0
 20
0.0
 30
0.0
  3
*U2
  1

  0
TEXT
  5
393
  8
0
 10
1.242886900606857
 20
0.9661879304773012
 30
0.0
 40
0.1
  1
Cut out of 
  0
TEXT
  5
394
  8
0
 10
1.255386900606857
 20
0.8245212638106345
 30
0.0
 40
0.075
  1
1
  0
LINE
  5
395
  8
0
 10
1.242886900606857
 20
0.8120212638106346
 30
0.0
 11
1.2928869006068571
 21
0.8120212638106346
 31
0.0
  0
TEXT
  5
396
  8
0
 10
1.242886900606857
 20
0.7245212638106345
 30
0.0
 40
0.075
  1
8
  0
TEXT
  5
397
  8
0
 10
1.317886900606857
 20
0.7620212638106345
 30
0.0
 40
0.1
  1
 inch material
  0
ENDBLK
  5
399
  8
0
  0
ENDSEC
  0
SECTION
  2
ENTITIES
  0
CIRCLE
  5
24E
  8
0
 10
0.7730000131090855
 20
0.1459999983575286
 30
0.0
 40
0.0955
  0
CIRCLE
  5
24F
  8
0
 10
0.4595000131090855
 20
0.1459999983575286
 30
0.0
 40
0.0955
  0
CIRCLE
  5
250
  8
0
 10
1.086500013109085
 20
0.1459999983575286
 30
0.0
 40
0.0955
  0
CIRCLE
  5
251
  8
0
 10
0.1460000049318539
 20
0.1459999983575286
 30
0.0
 40
0.0955
  0
LINE
  5
257
  8
0
 10
0.146
 20
0.0
 30
0.0
 11
1.0865
 21
0.0
 31
0.0
  0
LINE
  5
258
  8
0
 10
0.146
 20
0.292
 30
0.0
 11
1.0865
 21
0.292
 31
0.0
  0
ARC
  5
271
  8
0
 10
1.086500013109085
 20
0.1459999983575286
 30
0.0
 40
0.1459999983575292
 50
269.99999485551177
 51
90.000005144488057
  0
ARC
  5
36B
  8
0
 10
0.1460000030143717
 20
1.4405000019767029
 30
0.0
 40
0.1460000016424715
 50
90.000001935441176
 51
269.99999806455878
  0
CIRCLE
  5
36C
  8
0
 10
0.7730000111916033
 20
1.4405000019767029
 30
0.0
 40
0.0955
  0
CIRCLE
  5
36D
  8
0
 10
0.4595000111916033
 20
1.4405000019767029
 30
0.0
 40
0.0955
  0
CIRCLE
  5
36E
  8
0
 10
1.086500011191603
 20
1.4405000019767029
 30
0.0
 40
0.0955
  0
CIRCLE
  5
36F
  8
0
 10
0.1460000030143717
 20
1.4405000019767029
 30
0.0
 40
0.0955
  0
LINE
  5
370
  8
0
 10
0.1459999980825178
 20
1.2945000036191741
 30
0.0
 11
1.086499998082517
 21
1.2945000036191741
 31
0.0
  0
LINE
  5
371
  8
0
 10
0.1459999980825178
 20
1.5865000036191741
 30
0.0
 11
1.086499998082517
 21
1.5865000036191741
 31
0.0
  0
ARC
  5
372
  8
0
 10
1.086500011191603
 20
1.4405000019767029
 30
0.0
 40
0.1459999983575292
 50
315.04182009679062
 51
90.000005144488057
  0
ARC
  5
373
  8
0
 10
0.1460000049318539
 20
0.1459999983575286
 30
0.0
 40
0.1460000016424714
 50
135.01045395380959
 51
269.99999806455878
  0
LINE
  5
375
  8
0
 10
1.1898129257696071
 20
1.3373377937713891
 30
0.0
 11
0.146
 21
0.292
 31
0.0
  0
INSERT
  5
381
  8
0
  2
*U2
 10
0.0
 20
0.0
 30
0.0
  0
LINE
  5
387
  8
0
 10
1.086499998082517
 20
1.2945000036191741
 30
0.0
 11
0.0427435791266712
 21
0.2492187515448271
 31
0.0
  0
ENDSEC
  0
EOF
